Oops, an error
Loading. Please wait.

Glass Is Broken Bass Tab

163 views 3 this week
no commentswrite comment
1 2 3 4 5
3 more votes to show rating
add to favorites
launch autoscroll
font size
0
reset
guitar tuner
Autoscroll
slow
fast
+/-
esc
set tempo
stop
Help us to improve Ultimate-Guitar.com Take our survey!
×
Song: Glass Is Broken
Band: Chicosci
Album: Method of Breathing

dis one is d best song 4 me in their album method of breathing...astig..i'm not a bass 
pero gumawa ako ng tab n2...

whole step down, then dropped D (F,C,G,C)

intro:
----------------------------------------------------------------------|
----------------------------------------------------------------------|
----------------------------------------------------------------------|
----00--3—2-----------------------------------------------------------|

verse:
----------------------------------------------------------------------|
----------------------------------------------------------------------|
----------------------------------------------------------------------|
----00--3--2--00------------------------------------------------------|

pre-chorus:
-------------------|------------|----------------|--------------------|
-------------------|------------|----------------|--------------------|
--------------(4x)-|------------|-----------(4x)-|--------------------|
----00--3--2-------|-8888888...-|--00--3--2------|-888888...----------|

chorus:
----------------------------------------------------------------------|
----------------------------------------------------------------------|
----------------------------------------------------------------------|
----0---00--3--3---8---8--8--8----------------------------------------|

bridge:
----------------------------------------------------------------------|
----------------------------------------------------------------------|
-------------1--0-----------------------------------------------------|
----0--2--3--------3--0-----------------------------------------------|

-------------------|--------------------------------------------------|
-------------------|--------------------------------------------------|
----5--------------|-5--555555----------------------------------------|
--------7---5---7--|------------7--777777--5--555555--7—777777--------|

----------------------------------------------------------------------|
----------------------------------------------------------------------|
----------------------------------------------------------------------|
----88888888888...----10101010101010...-------------------------------|

end with:
----------------------------------------------------------------------|
----------------------------------------------------------------------|
-------------1--0-----------------------------------------------------|
----0--2--3--------3--------------------------------------------------|

**********************************************************************
Suggest correction
Give kudos to tab author, rate the tab!
1 2 3 4 5
comments
print report bad tab
guest
You may want to rate the tab now too:
select rating
Wanna post a correction for this tab? Suggest correction