Oops, an error
Loading. Please wait.

Knives Tab

684 views 1 this week
no commentswrite comment
1 2 3 4 5
accurate
x 5
add to favorites
launch autoscroll
font size
0
reset
how to read this tab
guitar tuner
Autoscroll
slow
fast
+/-
esc
set tempo
stop
Help us to improve Ultimate-Guitar.com Take our survey!
×
Author
Song:Knives
Album:Chicosci
Artist:Chicosci
Date Tabbed:July,2006
Guitar Tabber:Ryan Manongdo,16,m,Montalban Rizal
              forget_013@yahoo.com.ph(Friendster&YM)
              09229015724(Sun Cell) 

chicosci@yahoo.groups.com
www.rakista.com
www.brutalgrace.com

Gtr.Legends:
x - DEAD STRING
~ - LET IT RING
\ - SLIDE

Gtr.Tuning:Drop D

Intro:
Gtr.1:
e|--------------------------------------|
B|--------------------------------------|
G|--------------------------------------|
D|-77-1010-x-10~--10~---77-1010-x-10~---|
A|-77-1010-x--8~---8~---77-1010-x--8~---|
D|-77-1010-x------------77-1010-x-------|

Gtr.2:
e|---3----3\1--------------------3---3\1-----------|
B|-5----5-------5------5------5----5--------5------|
G|------------5---5--5---5----------------5---5~---|
D|-------------------------------------------------|
A|-------------------------------------------------|
D|-------------------------------------------------|
            
Verse:
Gtr.1:
e|-8~-----------8~--10~-------8~----------8~~------|
B|----8~--6~------------8~--------8~--6~------8~---|
G|-------------------------------------------------| 2x
D|-------------------------------------------------|
A|-------------------------------------------------|
D|-------------------------------------------------|

Gtr.2:Play the Intro

Last Chord Verse:
Gtr.1:    Gtr.2:   
e|-----   -------|
B|-----   -------|
G|-----   -12~---|
D|-7~--   -------|
A|-7~--   -------|
D|-7~--   -------|

Chorus:
e|------------------------------------------|
B|------------------------------------------|
G|------------------------------------------|
D|-777777--1010101010--1010101010--55555~---|
A|-777777--1010101010---8-8-8-8-8--55555~---|
D|-777777--1010101010--------------55555~---|

Repeat Verse:

Repeat Chorus:

Bridge:
e|----------------------      -------------|
B|---------------------- 3x   -------------|
G|---------------------- Then -4444444\1---| 
D|-5---5---4---4---4----      -5555555\1---|
A|---5---5---5---5---5--      -5555555\1---|
D|----------------------      -5555555\1---|

Repeat Chorus:
w/pick slide

End...

Knives Lyrics

Verse 1:
A cross, a heart no longer beating,
So we’re dealing with the devil tonight
But still we’re speaking softly,
I hear you singing to the other side
She’s sleeping with the enemy
While murdering a friend…
A kiss to betray, the silent flight
And the knives

Chorus:
She’s gone, we’ll sing her to sleep
This knife in my hand, grasping
The lies! 

Verse 2:
The song is growing louder
Were you wishing I would die tonight?
My back, the color crimson
Honey, pleas, the crime wasn’t mine
Won’t you keep it all inside
Don’t bite the feeding hand
A kiss to betray, the endless fuck

Chorus 2:
You’re gone; we’ll sing you to sleep
Nothing in your hand, fading

Repeat Chorus 1 and 2
Repeat Chorus 1

Liars never learn at all
You’ve been given the chance to fly
So long, my dear
A thousand times goodbye


   I would like to greet first offcourse my ONLY ONLY ONE,then;my relatives,my
friends on Montalban(Brgy.Balite Espiritu Subd.),My traitor friends in our school
NSDAPS San Mateo Rizal,Cocklosas,Cocklisay.Cocktabijan,Cockpistrano,Cockyatano,Cockruz,
Franciscock,Picock,Fuckmittan,Redick,Simbulbulan,Frondosuso,Bayagin,Titesta,Aldick,and many
moore,our band club(COMBO-RATS),Project X,To all my txt mates and other companie,Red Porn Records,
My friends in YM and Friendster,and most of all,hi to God..

Padre Garrote:          Extra:

Dino Testa:Vocals       Andrei Frondoso:Xylophone,Triangles,Flute and Tamborine           
Edy Capistrano:Gtr.1    Mike Alvez:Sub-Guitar                               
Jiro Uezono:Gtr.2      
Ryan Manongdo:Bass       
Aeroll Cayetano:Drums   
Suggest correction
What's this?
You can suggest a correction to this tab. Community and Mods will review your correction and vote to approve or reject it.
comments
print report bad tab
guest
You may want to rate the tab now too:
select rating
Please do not post tabs as comments. Select "correction" instead!