Oops, an error
Loading. Please wait.

Manila Teenage Death Squad Tab

version 1
version 1

Whole song

320 views 1 this week
1 commentread comment
1 2 3 4 5
worth learning
x 2
add to favorites
launch autoscroll
font size
0
reset
how to read this tab
guitar tuner
Tab Pro tools
  • play this tab
  • loop segment
  • change instrument
  • show fretboard
  • metronome
Autoscroll
slow
fast
+/-
esc
set tempo
stop
Contributor
Song:Manila Teenage Death Squad
Album:Chicosci
Artist:Chicosci
Date Tabbed:July,2006
Guitar Tabber:Ryan Manongdo,16,m,Montalban Rizal
              forget_013@yahoo.com.ph(Friendster&YM)
              09229015724(Sun Cell) 

chicosci@yahoo.groups.com
www.rakista.com
www.brutalgrace.com

Gtr.Legends:
~ - LET IT RING
x - DEAD STRING
/ - SLIDE
b - BEND

Gtr.Tuning:Drop D

Intro prt.1:
Gtr.1:
e|---------------------------|
B|---------------------------|
G|-4~------------------------|
D|-4~-----4-----------5------|
A|-2~--2----5-5-5-5/7---2~---|
D|---------------------------|

Gtr.2:
e|------|
B|------|
G|------|
D|-9~---|
A|------|
D|------|

Intro prt.2:
Gtr.1:
e|----------------------|
B|----------------------|
G|----------------------| 4x
D|---4-----------5------|
A|-2---5-5-5-5/7---2~---|
D|----------------------|

Gtr.2:
e|--------------------------------------------------------|
B|--------------------------------------------------------|
G|---11------------14b-11b~----11-------------14b---------| 
D|-9----9--7-5---9-----------9----9--7-5---9--------------|
A|-------------------------------------------------12b~---|
D|--------------------------------------------------------|

Verse 1:
e|-----------      -----------|
B|-----------      -----------|
G|-11--7--4~- 3x   -11-7-4~---|
D|--9--5--2~- Then --9-5-4~---|
A|--9--5--2~-      --9-5-2~---|
D|--9--5--2~-      --9-5------|

Chorus:Repeat Intro prt.2

Verse 2:No Guitar

Repeat Chorus:

Bridge prt.1:
Gtr.1:
e|--------------------------------|
B|--------------------------------|
G|-5555555-555555-555555-555555---|
D|-5555555-555555-555555-555555---|
A|-3333333-333333-333333-333333---|
D|--------------------------------|

Gtr.2:
e|------------------      ---------------------------|
B|------------------      ---------------------------|
G|-4-11-7-7-7-9-12-- 4x   -1616-1414-1212-11111111---|
D|-x--x-x-x-x-x-xx-- Then -xxxx-xxxx-xxxx--x-x-x-x---|
A|-2--9-5-5-5-7-10--      -1414-1212-1010--9-9-9-9---|
D|------------------      ---------------------------|

Bridge prt.2:
e|--------------------|
B|------------9999b---|
G|--------------------| 4x
D|---------2b---------|
A|---------2b---------|
D|-999-555-2b---------|

Repeat Chorus:

Last Chord:
Gtr.1:    Gtr.2:
e|-----   ------|
B|-----   ------|
G|-4b--   ------|
D|-4b--   -9b---|
A|-2b--   ------|
D|-----   ------|

End...

Manila Teenage Death Squad Lyrics

The sun is down again,
The killing flags ae ip
We’re beautiful in black,
The things nightmares are made of with painted eyes

Refrain:
A million hearts will stop the voices cry,
Tonight! Tonight! Tonight!
We’ve nothing to hide

We confess to the murders of a million souls
Another dance in the dark
Where we are never alone
We confess to the murders of a million souls
Another dance in the dark
And we are home
For now, the streets of Manila run red 


  I would like to greet first offcourse my ONLY ONLY ONE,then;my relatives,my
friends on Montalban(Brgy.Balite Espiritu Subd.),My traitor friends in our school
NSDAPS San Mateo Rizal,Cocklosas,Cocklisay.Cocktabijan,Cockpistrano,Cockyatano,Cockruz,
Franciscock,Picock,Fuckmittan,Redick,Simbulbulan,Frondosuso,Bayagin,Titesta,Aldick,and many
moore,our band club(COMBO-RATS),Project X,To all my txt mates and other companie,Red Porn Records,
My friends in YM and Friendster,and most of all,hi to God..

Padre Garrote:          Extra:

Dino Testa:Vocals       Andrei Frondoso:Xylophone,Triangles,Flute and Tamborine           
Edy Capistrano:Gtr.1    Mike Alvez:Sub-Guitar                               
Jiro Uezono:Gtr.2      
Ryan Manongdo:Bass       
Aeroll Cayetano:Drums   
comments
We did not receive enough feedback on this tab! Please rate:
print report bad tab
1 2 3 4 5
1 comment total.
0 reply
Droped_D wrote on June 6 2007, 10:38 pm

Nice Tab

I want to post or [tab]
guest
You may want to rate the tab now too:
select rating
Please do not post tabs as comments. Select "correction" instead!