Oops, an error
Loading. Please wait.

Seven Black Roses tab

version 3
version 3

Whole song

Interactive

1,130 views 1 this week
no commentswrite comment
1 2 3 4 5
2 more votes to show rating
add to favorites
×
Save as Personal and add changes to this tab that will be seen only by you. Learn more ›
×
You can save this tab as Personal to edit and correct it or add notes. All changes will be seen only by you. Learn more »
launch autoscroll
font size
0
reset
how to read this tab
guitar tuner
edit
Autoscroll
slow
fast
+/-
esc
set tempo
stop
Author
Difficulty
artist:chicosci
song:seven black roses
date tabbed:10/11/07
tabbed by:Sebastian Gerard L. Mijares
school:DBTC
cp #:09278844839™
e-mail add:blackmanseb@yahoo.com(Y.M and friendster)™

dedicated 2 sa mga taga db at sa brotherhood namin!!!!

Tuning:D A D G B e

Intro: C(arpeggio)
guitar1:
e|-----------------------------|
B|-----------------------------|
G|------5-4-5-4-5-4-5----------|
D|-----------------------------|
A|---3---3---3---3-------------|
D|-----------------------------|

intro2 and verse: Am-F-G-Em-F(2x)
guitar1:
e|--------------------------------------------------------------------------|
B|--------------------------------------------------------------------------|
G|----5-4-5-4-5-4-5-----5-4-5-4-5-4-5--------5-4-5-4-5-4-5----5-4-5-4-5-4-5-|
D|--------------------------------------------------------------------------|
A|--o--o---o---o------------------------------------------------------------|
D|--------------------3--3---3---3--------5---5---5---5-----2--2---3---3----|
(yun sa 2nd part nang intro ganito ang ending bago mag verse1)
e|----------------|
B|-----------5-~--|
G|----5-4-5-------|
D|----------------|
A|----------------|
D|--2--2-----3~---|

guitar2:(2x)
e|--------------------------------------------------------------------------|
B|--------------------------------------------------------------------------|
G|--------------------------------------------------------------------------|
D|--7-7--7777777777---3-3--333333333---5-5--555555555---2-2--222--3-3--3333-|
A|--7-7--7777777777---3-3--333333333---5-5--555555555---2-2--222--3-3--3333-|
D|--7-7--7777777777---3-3--333333333---5-5--555555555---2-2--222--3-3--3333-|
         ..........        .........        .........        ...       .... 

chorus:Am-F-C(4x)
guitar1
e|--------------------------|
B|--------------------------|
G|--------------------------|
D|--9-9---5-5---5-5-5-5-----|
A|--------------3-3-3-3-----|
D|--7-7---3-3---------------|

guitar2
e|--------------------------|
B|--------------------------|
G|--------------------------|
D|-7-7---3-3--5-5-5-5-------|
A|-7-7---3-3--3-3-3-3-------|
D|-7-7---3-3----------------|

verse:(same in verse1)
bridge:(same in verses and intro)
(repeat chorus)2x
End!!!!!

all rights reserved 2007™
=)

            
            
Suggest correction
Creating personal tab
Creating personal tab
You can edit any tab online and save it as your Personal.

You can edit, replace or remove any tab part or add personal notes – all changes will be seen only by you.

Personal tabs can be accessed anytime from any device, even offline.
Learn more »
Give kudos to tab author, rate the tab!
1 2 3 4 5
comments
print report bad tab
guest
You may want to rate the tab now too:
select rating
Wanna post a correction for this tab? Suggest correction