Oops, an error
Loading. Please wait.

Sweet Maria tab

version 2
version 2

Whole song

Interactive

356 views 3 this week
no commentswrite comment
1 2 3 4 5
1 last vote to show rating
add to favorites
×
Save as Personal and add changes to this tab that will be seen only by you. Learn more ›
×
You can save this tab as Personal to edit and correct it or add notes. All changes will be seen only by you. Learn more »
launch autoscroll
font size
0
reset
how to read this tab
guitar tuner
edit
Autoscroll
slow
fast
+/-
esc
set tempo
stop
Song:Chicosci Vampire Social Club
Band:Chicosci
Date:December, 2006
Tabber: June Stephen Sayama/15/m…
              June_sayama@yahoo.com(Friendster&YM)
              09278635570(txtmate nman jan?)

Gtr.Legends:
x - DEAD STRING
. - PALM MUTINNG
~ - LET IT RING
/ - SLIDE

Gtr.Tuning:Drop D

Intro:

Gtr.1&2:
e|----------------|
B|11~-11~-11~-11~-|
G|10~-10~-10~-10~-|
D|-8~--8~--8~--8~-|
A|-8~--8~--8~--8~-|
D|-8~--8~--8~--8~-|

Verse:

Gtr.1
e|-------------|
B|--11---------|
G|--10---------| \
D|---8---------|  \
A|---8---------|   \
D|---8---------|    \
                 > 2x
e|-------------|    /
B|--8----------|   /
G|--7----------|  /
D|--5----------| /
A|--5----------|
D|--5----------|

Gtr.2
e|---------|
B|--11-----|
G|--10-----| may mga palm mute dito,
D|---8-----| nyo na kung kelan nyo isusulpot…
A|---8-----|
D|---8-----|\
             > 2x
e|---------|/
B|--8------|
G|--7------|
D|--5------|
A|--5------|
D|--5------|

Pre chorus:

Gtr.1
e|----------------------------------------------|
B|-4~---6~---8888888888888888-6666666666666666--|
G|-3~---5~---7777777777777777-5555555555555555--|
D|-1~---3~---5555555555555555-3333333333333333--|
A|-1~---3~---5555555555555555-3333333333333333--|
D|-1~---3~---5555555555555555-3333333333333333--|

e|----------------------------------------------------------------------|
B|-4444444444444444-6666666666666666-8888888888888888-6666666666666666--|
G|-3333333333333333-5555555555555555-7777777777777777-5555555555555555--|
D|-1111111111111111-3333333333333333-5555555555555555-3333333333333333--|
A|-1111111111111111-3333333333333333-5555555555555555-3333333333333333--|
D|-1111111111111111-3333333333333333-5555555555555555-3333333333333333--|
     ..............   ..............   ..............   ..............

Gtr.2
e|----------------------------------------------|
B|----------------------------------------------|
G|----------------------------------------------|
D|-1~---3~---888-777-5~---777-555-3----------~--|
A|----------------------------------------------|
D|----------------------------------------------|
             ... ...      ... ...
e|-------------------------------------------------|
B|-------------------------------------------------|
G|-------------------------------------------------|
D|-1~---3~---888-777-55-888-777-55-777-555-3-break-|
A|-------------------------------------------------|
D|-------------------------------------------------|
             ... ... .. ... ... .. ... ...

Chorus:

Gtr.1&2:
e|-----------------------------------------------|
B|--11-------6---6---6---6-888x8x8x888x8x8x------|
G|--10-------5---5---5---5-777x7x7x777x7x7x------|
D|---8-16x-333333333333333-555x5x5x555x5x5x--3~--|
A|---8-----333333333333333-555x5x5x555x5x5x--3~--|
D|---8-----333333333333333-555x5x5x555x5x5x--3~--|
                           ..      ..
Repeat verse

Repeat pre chorus

Repeat chorus 2x

Bridge:

Gtr.1
e|----------------------------------|
B|-----4~------7~-------8~------6~--|
G|-----3~------5~-------7~------5~--|
D|-11111~--33333~---55555~--33333~--|   2x
A|-11111~--33333~---55555~--33333~--|
D|-11111~--33333~---55555~--33333~--|
   ....    ....     ....    ....
Gtr.2
e|----------------------------------|
B|---------------------8~------6~---|
G|------3^------5^-----7~------5~---|
D|-1111----3333----55555~--33333~---|   2x
A|-1111----3333----55555~--33333~---|
D|-1111----3333----55555~--33333~---|
   ....    ....    ....    ....
Gtr.1
e|---------------------------------------------------------------------|
B|---------------------------------------------------------------------|
G|---------------------------------------------------------------------|
D|-1111111111111111-3333333333333333-5555555555555555-3333333333333333-|
A|-1111111111111111-3333333333333333-5555555555555555-3333333333333333-|
D|-1111111111111111-3333333333333333-5555555555555555-3333333333333333-|
                              pm lahat yan
Gtr.2
e|-----------------------------------------|
B|-----------------------------------------|
G|-----------------------------------------|
D|---------8-12-10-8-7-8-7-8-5/15-8/15-8---|
A|---------x--x--x-x-x-x-x-x-x--x-x--x-x---|
D|---------8-12-10-8-7-8-7-8-5/15-8/15-8---|

e|-----------------------------|
B|-----------------------------|
G|-----------------------------|
D|---------8-12-10-8-7-8-7-8-5-|
A|---------x--x--x-x-x-x-x-x-x-|
D|---------8-12-10-8-7-8-7-8-5-|

    Gtr.2(do this very fast      |Gtr1 (after the lead of gtr.2)
e|-------------------------------|----------------|
B|-------------------------------|----------------|
G|-------18-16-15-16-18-16-15-16-|----------------|
D|-------------------------------|-3-1-0---1-0----|
A|-------------------------------|-------3-----3-1|
D|-------------------------------|----------------|
D ko masyado mkuha sa part na to,  . . . . . . .
mabilis eh…

Last part:

the quiet part of this song
e|-------------------------------------------------------------------|
B|-------------------------------------------------------------------|
G|-------------------------------------------------------------------|
D|-11111111-33333333-55555555-33333333-11111111-33333333-55555555-3--|
A|-11111111-33333333-55555555-33333333-11111111-33333333-55555555-3--|
D|-11111111-33333333-55555555-33333333-11111111-33333333-55555555-3--|
   ........ ........ ........ ........ ........  .......  .......

Repeat chorus with fast drum beat…

End with:
e|-----|
B|-----|
G|-----|
D|--3--|
A|--3--|
D|--3--|


I dedicte this song to my bandmates, timothy a.k.a. lamesa, jezer, mark, cristopher
tope and kenneth a.k.a. tsuper… and to my beloved, hehe, sikreto ko na un… I also dedicate
song sa mga kukuha nito, pls rate this tab, hehe, hope you like it… well, siguro, 80% 
lang ito, hehe… any questions? Txt me at 09278635570, name ko june, 15 yrs old… bye,
:-p

            
            
Suggest correction
Creating personal tab
Creating personal tab
You can edit any tab online and save it as your Personal.

You can edit, replace or remove any tab part or add personal notes – all changes will be seen only by you.

Personal tabs can be accessed anytime from any device, even offline.
Learn more »
Give kudos to tab author, rate the tab!
1 2 3 4 5
comments
print report bad tab
guest
You may want to rate the tab now too:
select rating
Wanna post a correction for this tab? Suggest correction