Oops, an error
Loading. Please wait.

Youre Killing Me tab

version 2
version 2

Whole song

419 views 1 this week
no commentswrite comment
1 2 3 4 5
x 7
add to favorites
×
Save as Personal and add changes to this tab that will be seen only by you. Learn more ›
×
You can save this tab as Personal to edit and correct it or add notes. All changes will be seen only by you. Learn more »
launch autoscroll
font size
0
reset
how to read this tab
guitar tuner
edit
Autoscroll
slow
fast
+/-
esc
set tempo
stop
Song:    You're Killing Me
Artist:  Chicosci
Album:   Chicosci
Tabbed by: Paul Anthonie Antoc
E-mail: paul_antoc@yahoo.com
Address: Mariveles,Bataan,Philippines
contact #: 09184423602

Elow po sa mga friends ko sila Calvin,Jon,Otep,Emak,Aerol,Tuts.. at iba 
pa.. sa mga clasm8s ko sa MNHS(annex) IV-A.. mabuhay kayong lahat.. hehe
Binabati ko rin si Maria Lourdes Vejar, HEHE.. wala lang.. HEHEHE!!
Paki-rate narin po ah.. Thank You!!


Gtr. Legends:
 ~  - Let it ring
 x  - Dead Note
 /\ - Slide
 h  - hammer on

Tuning: Drop D


Intro:
Drumbeat & Effects

Verse: 
     "She said to me.."
e|---------------------------------|
B|---------------------------------|
G|---------------------------------| 2x
D|--777777-555555-3333333333-------|
A|--777777-555555-3333333333-------|
D|--777777-555555-3333333333-------|

 "your last breath,I know.."
e|---------------------------|
B|---------------------------|
G|--55-55-55-55-5/7----------|
D|--33-33-33-33-x/x----------|
A|--33-33-33-33-3/5----------|
D|--33-33-33-33--------------|


Chorus:
"Whoa, I could see the tears from in your eyes.."
e|-----------------------------------|
B|-----------------------------------|
G|-----------------------------------| 2x
D|--7777777-3333333-0000000-333333---|
A|--7777777-3333333-0000000-333333---|
D|--7777777-3333333-0000000-333333---|

"But we've almost made it"
e|---------|
B|---------|
G|---------|
D|---3~~---|
A|---3~~---|
D|---3~~---|


Repeat Verse:
Repeat Chorus:


Bridge part 1: 

Guitar 1:
      "Whoa..."
e|---------------------------------|
B|---------------------------------|
G|---------------------------------| 
D|--777777-555555-3333333333-------| 2x
A|--777777-555555-3333333333-------|
D|--777777-555555-3333333333-------|


Guitar 2:
e|----------------------------------------|
B|------------------8-----------------8---|
G|-5h6-5h6-5h6-5h6----5h6-5h6-5h6-5h6-----| Get the timing.. 
D|----------------------------------------|
A|----------------------------------------|
D|----------------------------------------|
 
 (Continuation)
e|--101010101010\888888888-101010101010\88888888--------|
B|------------------------------------------------------|
G|------------------------------------------------------| 
D|------------------------------------------------------|
A|------------------------------------------------------|
D|------------------------------------------------------|
  
 (Continuation)
e|----------------------------------------|
B|------------------8-----------------8---|
G|-5h6-5h6-5h6-5h6----5h6-5h6-5h6-5h6-----| Get the timing.. 
D|----------------------------------------|
A|----------------------------------------|
D|----------------------------------------|
 
(Continuation)
e|--888888888/1010101010\888888888888\777777777\5~----|
B|----------------------------------------------------|
G|----------------------------------------------------| 
D|----------------------------------------------------|
A|----------------------------------------------------|
D|----------------------------------------------------|



Bridge part 2:

   "Darling not tonight"
e|---------------------|          e|------------------|  
B|---------------------|          B|------------------|
G|---------------------| 3x Then  G|------------------| 
D|---------------------|          D|--------------0~--|
A|---------------------|          A|--------------0~--|
D|--7~--5~--3~--3~-----|          D|--7~--5~--3~--0~--|  



Repeat Chorus:
Repeat Bridge part 1:


Outro:
Guitar 1:                     Guitar 2: 
e|-----------------------|   e|--88-88-88-88-10--|
B|-----------------------|   B|------------------|
G|--55-55-55-55-7--------|   G|------------------|
D|--33-33-33-33-5--------|   D|------------------|
A|--33-33-33-33-5--------|   A|------------------|
D|--33-33-33-33-5--------|   D|------------------| 


Last chords:
Guitar 1:    Guitar 2:
e|------|      e|--12~--|
B|------|      B|-------|
G|------|      G|-------|
D|--3~--|      D|-------|
A|--3~--|      A|-------|
D|--3~--|      D|-------| 



End


You're killing me Lyrics:

Verse:
She said to me
"i've had enough, the fire is leaving"
Time to fade away
Hold my hand and whisper a prayer
I'm by your side
Promise me your shadow stays forever
So stay with me
Your body and blood are those that keep me alive
This won't be your last breath, i know

Chorus:
Whoa, i can see the tears form in your eyes
'cause we almost made it
Whoa, it'll break my heart to see you go
'cause we've almost made it

You're so far gone
They left you alone
The angels will save me
I saw you there,
You poisoned your friends
And danced with the devil
Wake up again,
We're given a chance

The chemicals are waiting let's clean your wounds
Darling tell me you don't wanna leave us at all
This won't be your last breath, i know

Repeat Chorus:

Bridge:
There's no way down
Darling not tonight

This will not be your last breath


Ang mga anumang bayulenteng reaksyon ay maluwag kong tinatanggap,, kaya kung may mali sa
ko,, i-PM nyo nalang o magpost kayo sa comments.. Salamat,,

            
            
Suggest correction
Creating personal tab
Creating personal tab
You can edit any tab online and save it as your Personal.

You can edit, replace or remove any tab part or add personal notes – all changes will be seen only by you.

Personal tabs can be accessed anytime from any device, even offline.
Learn more »
comments
print report bad tab
guest
You may want to rate the tab now too:
select rating
Wanna post a correction for this tab? Suggest correction