Oops, an error
Loading. Please wait.

Blue Velvet intro tab

2,205 views 1 this week
3 commentsread comments
1 2 3 4 5
x 9
add to favorites
×
Save as Personal and add changes to this tab that will be seen only by you. Learn more ›
×
You can save this tab as Personal to edit and correct it or add notes. All changes will be seen only by you. Learn more »
launch autoscroll
font size
0
reset
how to read this tab
guitar tuner
edit
Autoscroll
slow
fast
+/-
esc
set tempo
stop
Author
My tab for the main riff in Blue Velvet by Childhood. My 
first ever tab on UG, any comments or suggestions gratefully received. Enjoy.

https://www.facebook.com/childhoodband
https://soundcloud.com/childhoodmusic

Standard tuning.


(/) Slide Up  (\) Slide Down

e|---------------------------------------------------------------------------|
B|---------------------------------------------------------------------------|
G|---------------------------------------------------------------------------|
D|-/9----9------11--9--------------------------------------------------------|
A|-/11------11----------11------------------11--------9----------------------|
E|--0------------------------0----------9-------9\7-------7------------------|

            
            
Suggest correction
Creating personal tab
Creating personal tab
You can edit any tab online and save it as your Personal.

You can edit, replace or remove any tab part or add personal notes – all changes will be seen only by you.

Personal tabs can be accessed anytime from any device, even offline.
Learn more »
comments
print report bad tab
3 comments total.
0 reply
cjp9494 155 Oct 18, 2013 03:45 AM

What a brilliant riff. Would love to see more childhood tabs up here!

+1 reply
timemmott 227 Mar 03, 2015 05:05 AM

e|--------------------------12-12\-------------------------------|
B|-------12/14\12--14-14-12-12-12\-------------------------------|
G|--11/13--------13----------------------------------------------|
D|---------------------------------------------------------------|
A|---------------------------------------------------------------|
E|---------------------------------------------------------------|

(intro lead riff)

guest
You may want to rate the tab now too:
select rating
Wanna post a correction for this tab? Suggest correction