Oops, an error
Loading. Please wait.

Redbone Chords

2,998 views 1,839 this week
3 commentsread comments
1 2 3 4 5
x 5
add to favorites
launch autoscroll
font size
0
reset
transpose
0
reset
display chords
guitar tuner
Autoscroll
slow
fast
+/-
esc
set tempo
stop
Help us to improve Ultimate-Guitar.com Take our survey!
×
Author
Difficulty
intermediate
"Redbone" by Childish Gambino
Tabbed by Kenneth Wesley

Enjoy!

Riff Tab

E|------------------------------9-|-----------------------------------|
B|--11-9-7-6------------------7---|--11-----------9-------------------|
G|-----------6----8-------6-8-----|---------10-11---11----------------|
D|-------------8------------------|-----------------------------------|
A|--------------------------------|-----------------------------------|
E|--------------------------------|-----------------------------------|

E|------------------------------9-|-----------------------------------|
B|--11-9-7-6------------------7---|--11--------9-7--------------------|
G|-----------6---8--------6-8-----|----------------6h8----------------|
D|-------------8------------------|-----------------------------------|
A|--------------------------------|-----------------------------------|
E|--------------------------------|-----------------------------------|


[Intro]
B C# Dm

[Verse 1]
B      C#    D#m
Daylight
                                 B         C#    D#m
I wake up feeling like you won't play right
                                        B         C#   D#m
I used to know, but now that shit don't feel right
                       B     C#   D#m
It made me put away my pride

B      C#    D#m
So long
                                B      C#    D#m
You made a nigga wait for some, so long
                                        B         C#    D#m
You make it hard for a boy like that to know wrong
                               B      C#    D#m
I'm wishing I could make this mine, oh

[Pre-Chorus]
D#m             G#m
If you want it, yeah
F#m              E
You can have it, oh, oh, oh
D#m             G#m
If you need it, oooh
F#m             E
We can make it, oh
D#m           G#m
If you want it
F#m            E
You can have it

[Chorus]
B            C#
But stay woke
D#m
Niggas creepin'
B               C#
They gon' find you
D#m
Gon' catch you sleepin' (Oooh)
B            C#
Now stay woke
D#m
Niggas creepin'
B                       C#    D#m
Now don't you close your eyes

[Verse 2]
B       C#  D#m
Too late
                                      B       C#  D#m
You wanna make it right, but now it's too late
                                     B       C#  D#m
My peanut butter chocolate cake with Kool-Aid
                           B   C#  D#m
I'm trying not to waste my time


[Pre-Chorus]
D#m             G#m
If you want it, yeah
F#m              E
You can have it, oh, oh, oh
D#m             G#m
If you need it, oooh
F#m             E
We can make it, oh
D#m           G#m
If you want it
F#m            E
You can have it, aaaaaah!


[Chorus]
B            C#
But stay woke
D#m
Niggas creepin'
B               C#
They gon' find you
D#m
Gon' catch you sleepin' (Oooh)
B            C#
Now stay woke
D#m
Niggas creepin'
B                       C#    D#m
Now don't you close your eyes
B            C#
But stay woke
D#m
Niggas creepin'
B               C#
They gon' find you
D#m
Gon' catch you sleepin' (Oooh)
B            C#
Now stay woke
D#m
Niggas creepin'
B                       C#    D#m
Now don't you close your eyes


[Outro]
B C# D#m
Suggest correction
comments
print report bad tab
3 comments total.
0 reply
mitch.castrission 10 Nov 28, 2016 11:44 PM

I don't understand why you haven't put the chorus the same as the verse? What's with the random B#????????

0 reply
kenempa 69 Dec 02, 2016 06:14 AM

Someone edited it and it got approved. I'll fix it

-1 reply
connor8081 19 Dec 01, 2016 10:52 PM

didn't like this contribution

guest
You may want to rate the tab now too:
select rating
Wanna post a correction for this tab? Suggest correction