Oops, an error
Loading. Please wait.

Redbone Tab

version 1
version 1

Whole song

4,237 views 1,875 this week
no commentswrite comment
1 2 3 4 5
x 6
add to favorites
launch autoscroll
font size
0
reset
how to read this tab
guitar tuner
Autoscroll
slow
fast
+/-
esc
set tempo
stop
Help us to improve Ultimate-Guitar.com Take our survey!
×
Author
Difficulty
intermediate
-------------------------------------------------------------------------------
                             Redbone - Childish Gambino
-------------------------------------------------------------------------------
Tabbed by: carterkelliott
E-mail: carterelliott@gmail.com

Tuning: Standard

[Verse/Chorus]
e|2---4--6--------|2---4--6------18|2---4--6--------|2---4--6--------|
B|4---6--7--------|4---6--7------19|4---6--7--------|4---6--7--------|
G|4---6--8--------|4---6--8------20|4---6--8--------|4---6--8--------|
D|----------------|----------------|----------------|----------------|
A|----------------|----------------|----------------|----------------|
E|----------------|----------------|----------------|----------------|


Add some wah to each note on this lick!

[Guitar Lick Over The Intro And Chorus]
E|------------------------------9-|-----------------------------------|
B|--11-9-7-6------------------7---|9h11------6-7-9-7------------------|
G|-----------6---6h8------6-8-----|-----------------------------------|
D|-------------8------------------|-----------------------------------|
A|--------------------------------|-----------------------------------|
E|--------------------------------|-----------------------------------|

E|------------------------------9-|-----------------------------------|
B|--11-9-7-6------------------7---|9h11--------9-7--------------------|
G|-----------6---6h8------6-8-----|----------------6h8----------------|
D|-------------8------------------|-----------------------------------|
A|--------------------------------|-----------------------------------|
E|--------------------------------|-----------------------------------|

[Pre-Chorus]
E|--------------------------------|--------------------------------|
B|--------------------------9---7-|--------------------------------|
G|--------------------------------|3-3---3-3-----------------------|
D|----------------6-6---6-6---4---|--------------------------------|
A|6-6---6-6-----------------------|------------5---6-6---6-6-------|
E|--------------------------------|--------------------------------|

E|--------------------------------|
B|----------9---7-----------------|
G|------------------------3-------|
D|6-6---6-6---4---3-3---3---------|
A|--------------------------------|
E|--------------------------------|

[Solo/Outro]

(Guitar 1)
E|-------------------------16b18r16-14-16b18-16-------------------|
B|-14b16----11-12-14-12----------------------------16b18r16-14----|
G|-------------------------------------------------------------15-|
D|----------------------------------------------------------------|
A|----------------------------------------------------------------|
E|----------------------------------------------------------------|

E|-------------------------16b17r16-14-16b18-16-------------------|
B|-14b16----11-12-14-12----------------------------16b18r16-14----|
G|----------------------------------------------------------------|
D|----------------------------------------------------------------|
A|----------------------------------------------------------------|
E|----------------------------------------------------------------|

(Guitar 2)

E|----------------------------------------------------------------|
B|----------------------------------------------------------------|
G|-------------------------3b5r3----2-----------------------------|
D|-3--------3-----3--5-----------------5--------------------------|
A|-------------5--------------------------------------------------|
E|----------------------------------------------------------------|

E|----------------------------------------------------------------|
B|----------------------------------------------------------------|
G|----------------------------------------------------------------|
D|-4--------4--5--7--5--------------------------------------------|
A|----------------------------------------------------------------|
E|----------------------------------------------------------------|

************************************

| /   slide up
| \   slide down
| h   hammer-on
| p   pull-off
| ~   vibrato
| +   harmonic
| x   Mute note
| b   Bend
| pb  Pre-bend
| br  Bend release
| pbr Pre-bend release
| brb Bend release bend

************************************
Suggest correction
comments
print report bad tab
guest
You may want to rate the tab now too:
select rating
Wanna post a correction for this tab? Suggest correction