Oops, an error
Loading. Please wait.

Redbone tab

version 2
version 2

Whole song

  • Redbone by Childish Gambino from the album "Awaken, My Love".

Interactive

7,318 views 342 this week
1 commentread comment
1 2 3 4 5
x 7
add to favorites
×
Save as Personal and add changes to this tab that will be seen only by you. Learn more ›
×
You can save this tab as Personal to edit and correct it or add notes. All changes will be seen only by you. Learn more »
launch autoscroll
font size
0
reset
how to read this tab
guitar tuner
edit
Autoscroll
slow
fast
+/-
esc
set tempo
stop
Author
Difficulty
About this tab version
Redbone by Childish Gambino from the album "Awaken, My Love". Was this info helpful? Yes No
[Intro]
e|-----------------------------------8---------------------------------------|
B|--10--8--6--5-------------------6-----8h10------5--6--8--6-----------------|
G|---------------5-----5h7---5--7--------------------------------------------|
D|------------------7--------------------------------------------------------|
A|---------------------------------------------------------------------------|
E|---------------------------------------------------------------------------|

e|------------------------------------8--------------------------------------|
B|--10--8--6--5--------------------6-----8h10-----8--6-----------------------|
G|---------------5-----5h7---5--7-----------------------5h7------------------|
D|------------------7--------------------------------------------------------|
A|---------------------------------------------------------------------------|
E|---------------------------------------------------------------------------|

[Verse]
e|--1---3---5-------1---3---5------------------------------------------------|
B|--3---5---6-------3---5---6------------------------------------------------|
G|--3---5---7-------3---5---7------------------------------------------------|repeat until chorus
D|---------------------------------------------------------------------------|
A|---------------------------------------------------------------------------|
E|---------------------------------------------------------------------------|

[Chorus]
e|-----------------------------------8---------------------------------------|
B|--10--8--6--5-------------------6-----8h10------5--6--8--6-----------------|
G|---------------5-----5h7---5--7--------------------------------------------|
D|------------------7--------------------------------------------------------|
A|---------------------------------------------------------------------------|
E|---------------------------------------------------------------------------|

e|------------------------------------8--------------------------------------|
B|--10--8--6--5--------------------6-----8h10-----8--6-----------------------|
G|---------------5-----5h7---5--7-----------------------5h7------------------|
D|------------------7--------------------------------------------------------|
A|---------------------------------------------------------------------------|
E|---------------------------------------------------------------------------|

[Outro]
e|----------------------16--14--12--14--16--14-------------------------------|
B|--14---9--10--12--10--------------------------16--14--12------12h14--------|
G|----------------------------------------------------------13---------------|repeat until end of song
D|---------------------------------------------------------------------------|
A|---------------------------------------------------------------------------|
E|---------------------------------------------------------------------------|

************************************

| h  Hammer-on

************************************

            
            
Suggest correction
Creating personal tab
Creating personal tab
You can edit any tab online and save it as your Personal.

You can edit, replace or remove any tab part or add personal notes – all changes will be seen only by you.

Personal tabs can be accessed anytime from any device, even offline.
Learn more »
comments
print report bad tab
1 comment total.
0 reply
burg3rb3n 10 Jul 24, 2017 10:32 PM

Finally! This one sounds right. The others are just a bit off.

guest
You may want to rate the tab now too:
select rating
Wanna post a correction for this tab? Suggest correction