Oops, an error
Loading. Please wait.

The Night Me And Your Mama Met solo tab

4,453 views 60 this week
1 commentread comment
1 2 3 4 5
x 6
add to favorites
×
Save as Personal and add changes to this tab that will be seen only by you. Learn more ›
×
You can save this tab as Personal to edit and correct it or add notes. All changes will be seen only by you. Learn more »
launch autoscroll
font size
0
reset
how to read this tab
guitar tuner
edit
Autoscroll
slow
fast
+/-
esc
set tempo
stop
Author
Difficulty
-------------------------------------------------------------------------------
              The Night Me And Your Mama Met - Childish Gambino
-------------------------------------------------------------------------------

Tabbed by: carterkelliott
Tuning: Standard

-------------------------------------------------------------------------------

Okay, so this solo is played super passionately by Gary Clark Jr., and there are
a lot of unconventional sounds that can't be notated well on tablature, so I'm
going to try to adapt this as well as possible.

[Solo]

E|----------14b16------14~~~~~~~~14p12--------|
B|------14---------12------------------14-12--|
G|--------------------------------------------|
D|--------------------------------------------|
A|--------------------------------------------|
E|--------------------------------------------|

E|-14b16-------14b16r14-12-14b16-12-14~~~12---|
B|------------------------------------------14|
G|--------------------------------------------|
D|--------------------------------------------|
A|--------------------------------------------|
E|--------------------------------------------|

E|-17b20---14b16------------------------------|
B|--------------------------------12-9--------| <--- in this portion, the X's simply represent
G|--------------------------------------11-9--|      feedback of some sort that Gary implements,
D|--------------------------------------------|      which I believe is him playing the 6th
A|--------------------------------------------|      string as an E flat through heavy fuzz,
E|----------------XXXXXXXXXXXXXX--------------|      but for convenience purposes this tab is standard

E|-------------------------------------------------------|
B|-12b14--------9--12--------9-12---------9-12-------9-12|
G|--------11b13--------11b13-------11b13-------11b13-----|
D|-------------------------------------------------------|
A|-------------------------------------------------------|
E|-------------------------------------------------------|

E|--------------------------------------------|
B|-------9-12-------9-12-------9-12-------9-12|
G|-11b13------11b13------11b13------11b13-----|
D|--------------------------------------------|
A|--------------------------------------------|
E|--------------------------------------------|

E|--------------------------------------------|
B|-------9-12-------9-12-------9-12-------9-12|
G|-11b13------11b13------11b13------11b13-----|
D|--------------------------------------------|
A|--------------------------------------------|
E|--------------------------------------------|

E|--------------------------------------------|
B|-12b14---14b16---14b17---12b14--------------|
G|--------------------------------11b13r11-9--|
D|--------------------------------------------|
A|--------------------------------------------|
E|--------------------------------------------|

E|--------------------------------------------|
B|-12-12b14r12b14r12b14r--9-14b17-------9-9-12|
G|--------------------------------------------|
D|--------------------------------------------|
A|--------------------------------------------|
E|--------------------------------------------|

E|-------------------------------------------------------------------------------|
B|-12b14r12b14r12b14r12b14r12b14r12b14r12b14r12b14r12b14r12b14r12b14r12b14r12b14r| <--- Here, Gary bends
G|-------------------------------------------------------------------------------|      the string until it
D|-------------------------------------------------------------------------------|      essentially stops
A|-------------------------------------------------------------------------------|      vibrating.
E|-------------------------------------------------------------------------------|

************************************

| h   hammer-on
| p   pull-off
| ~   vibrato
| b   Bend
| br  Bend release

************************************

            
            
Suggest correction
Creating personal tab
Creating personal tab
You can edit any tab online and save it as your Personal.

You can edit, replace or remove any tab part or add personal notes – all changes will be seen only by you.

Personal tabs can be accessed anytime from any device, even offline.
Learn more »
comments
print report bad tab
1 comment total.
+2 reply
Skogvolds 10 Aug 07, 2017 09:06 PM

wow

guest
You may want to rate the tab now too:
select rating
Wanna post a correction for this tab? Suggest correction