Oops, an error
Loading. Please wait.

U Dont Have To Call Tab

85 views 3 this week
no commentswrite comment
1 2 3 4 5
3 more votes to show rating
add to favorites
launch autoscroll
font size
0
reset
how to read this tab
guitar tuner
Autoscroll
slow
fast
+/-
esc
set tempo
stop
Help us to improve Ultimate-Guitar.com Take our survey!
×
Author
Difficulty
novice
About this tab version
Took a long time to tab. plz tell me if there are any corrections. Greatly appreciated. Was this info helpful? Yes No
************************************

First tab took me 2 hrs to make. ;P

************************************

[Intro]

e|--0---3----7----3r---------3------------3----------------------------------------------|
B|------------------------------1---3r-------1----3------5--3--3-3-3-3----1---5---3-----1|
G|---------------------------------------------------------------------------------------|
D|---------------------------------------------------------------------------------------|
A|---------------------------------------------------------------------------------------|
E|---------------------------------------------------------------------------------------|

e|--------------------3-----------------3-----------------------------------------------|
B|--5--3--1--3--1--------1---3--1----------1---3----------5--3--3-3-3-3----1---5---3---1|
G|--------------------------------------------------------------------------------------|
D|--------------------------------------------------------------------------------------|
A|--------------------------------------------------------------------------------------|
E|--------------------------------------------------------------------------------------|


[Verse] x2 |                          only first time  |
           v                                           v

e|---8--7--3---0---------3r---|--3--3---7---5-----0----1---3-----7---3---------------=---|
B|----------------3---1-------|-------------------------------------------1---1----------|
G|----------------------------|----------------------------------------------------------|
D|----------------------------|----------------------------------------------------------|
A|----------------------------|----------------------------------------------------------|
E|----------------------------|----------------------------------------------------------|

e|---3-3-3---7---8--8-----3----10--12--10r--------------------|
B|------------------------------------------------------------|
G|------------------------------------------------------------|
D|------------------------------------------------------------|
A|------------------------------------------------------------|
E|------------------------------------------------------------|


[Chorus]

e|---8--7--5--3------------------------7--7--7--7---7---5---3--5r-------------|
B|----------------5-3---1---3----5r-------------------------------------------|
G|----------------------------------------------------------------------------|
D|----------------------------------------------------------------------------|
A|----------------------------------------------------------------------------|
E|----------------------------------------------------------------------------|

e|---8--7--5--3------------------------7--7---10--7---7---5---3--5----8r------|
B|----------------5-3---1---3----5r-------------------------------------------|
G|----------------------------------------------------------------------------|
D|----------------------------------------------------------------------------|
A|----------------------------------------------------------------------------|
E|----------------------------------------------------------------------------|


[Outro] repeat however many times you want

e|--0---3----7----3r----S-----------------3r----S------8--7--3-----------3----S--------|
B|----------------------S-----=-5-3---1---------S--------------5--3--1--------S--------|
G|----------------------S-----------------------S-----------------------------S--------|
D|----------------------S-----------------------S-----------------------------S--------|
A|----------------------S-----------------------S-----------------------------S--------|
E|----------------------S-----------------------S-----------------------------S--------|

{Outro} (Other guitar) insert where the S is

e|---8--7---3---0--------|
B|-------------------3---|
G|-----------------------|
D|-----------------------|
A|-----------------------|
E|-----------------------|



************************************

| r   Let note ring
| s   Insert second guitar outro here

************************************
Suggest correction
Give kudos to tab author, rate the tab!
1 2 3 4 5
comments
print report bad tab
guest
You may want to rate the tab now too:
select rating
Wanna post a correction for this tab? Suggest correction