Oops, an error
Loading. Please wait.

All My Balloons Tab

version 1
version 1

Whole song

3,230 views 1 this week
9 commentsread comments
1 2 3 4 5
accurate
x 3
add to favorites
launch autoscroll
font size
0
reset
how to read this tab
guitar tuner
Tab Pro tools
  • play this tab
  • loop segment
  • change instrument
  • show fretboard
  • metronome
×
Best way to learn
"All My Balloons"
Autoscroll
slow
fast
+/-
esc
set tempo
stop
Contributor
Difficulty
novice
-------------------------------------------------------------------------------
                             All My Balloons - Children 18:3
-------------------------------------------------------------------------------
Tabbed by:  Andrew Apple
Email:  drewmaroon24@hotmail.com

Tuning:  With this tab I will give you all the right chords for every part and you will 
to play it with the song to get the strumming patterns!

Intro:  Ring out open and then play these first two chords

e|---0~----4----7---------------------------------------------------------------|
B|---0~----5----7---------------------------------------------------------------|
G|---0~----6----9---------------------------------------------------------------|
D|---0~----6----9---------------------------------------------------------------|
A|---0~----4----7---------------------------------------------------------------|
E|---0~----4----7---------------------------------------------------------------|

Intro:  This is the 2nd part of the intro, which is also the chorus:

e|---------------------------------------------------------------------------|
B|---------------------------------------------------------------------------|
G|---------------------------------------------------------------------------|
D|---2----6----4----6--------------------------------------------------------|
A|---2----6----4----6--------------------------------------------------------|
E|---0----4----2----4--------------------------------------------------------|

Verse:  "Sing, Sing OH! so sucker for the sugar..."

e|---4------7-------------------------------------------------------------------|
B|---5------7-------------------------------------------------------------------|
G|---6------9-------------------------------------------------------------------|
D|---6------9-------------------------------------------------------------------|
A|---4------7-------------------------------------------------------------------|
E|---4------7-------------------------------------------------------------------|

Pre-Chorus:  "The words I wrote are a broken chain..."

e|------------------------------------------------------------------------------|
B|------------------------------------------------------------------------------|
G|------------------------------------------------------------------------------|
D|----2----4----6----4----------------------------------------------------------|
A|----2----4----6----4----------------------------------------------------------|
E|----0----2----4----2----------------------------------------------------------|

Chorus:  "Whoa OH!"

e|---------------------------------------------------------------------------|
B|---------------------------------------------------------------------------|
G|---------------------------------------------------------------------------|
D|----2----6----4----6-------------------------------------------------------|
A|----2----6----4----6-------------------------------------------------------|
E|----0----4----2----4-------------------------------------------------------|

Now you go back to the verse and you play those chords right after the chorus!

I dont exactly have the song on hand to listen to but if you have questions or I 
missed apart then let me know and I will try to fix it!
Comments are welcome, also is sincere correction!

Thanks and Enjoi

Andrew Apple

| /  slide up
| \  slide down
| h  hammer-on
| p  pull-off
| ~  vibrato
| +  harmonic
| x  Mute note
===============================================================================
comments
We did not receive enough feedback on this tab! Please rate:
print report bad tab
1 2 3 4 5
9 comments total. Showing first comments.
+1 reply
SwollenEyeballs wrote on October 6 2008, 11:43 pm

great tab! but i already new like all of this.....

e|---0~----4----7---------------------------------------------------------------|
B|---0~----5----7---------------------------------------------------------------|
G|---0~----6----9---------------------------------------------------------------|
D|---0~----6----9---------------------------------------------------------------|
A|---0~----4----7---------------------------------------------------------------|
E|---0~----4----7---------------------------------------------------------------|


i am not sure about those two chords in there.....i know the 000000 is right....but the other ones don't sound right.....i seen David play somewhere down by the 12th fet or something....maybe like this but i am not sure....

| (2x) |
||-0~~--------------|-----------------------------------|
||-0~~--------------|-11-11--11-11--11--12-12--12-12-12-|
||-0~~--------------|-11-11--11-11--11--12-12--12-12-12-|
||-0~~--------------|-11-11--11-11--11--12-12--12-12-12-|
||-0~~--------------|-----------------------------------|
||-0~~--------------|-----------------------------------|
M=M

not sure though....

but imma give you 4 stars.

-1 reply
blinkday41jew wrote on October 7 2008, 06:10 pm

try this:

e-
B- 9 12
G- 9 11
D- 11 14
A-
E-

-1 reply
blinkday41jew wrote on October 8 2008, 11:28 am

OR even this:

e-
B- 9 8
G- 9 9
D- 11 9
A-
E-


The thing is the two chords he plays is C#m and E or Em

I just keep giving variations of those chords but its all the same!

I want to post or [tab]
guest
You may want to rate the tab now too:
select rating
Please do not post tabs as comments. Select "correction" instead!