Oops, an error
Loading. Please wait.

All My Balloons Tab

version 2
version 2

Whole song

698 views 1 this week
1 commentread comment
1 2 3 4 5
please rate
add to favorites
launch autoscroll
font size
0
reset
how to read this tab
guitar tuner
Tab Pro tools
  • play this tab
  • loop segment
  • change instrument
  • show fretboard
  • metronome
×
Best way to learn
"All My Balloons"
Autoscroll
slow
fast
+/-
esc
set tempo
stop
Contributor
All My Balloons by Children 18:3

INTRO
E |0~------------------------------|
B |0~------------------------------|
G |0~------------------------------|
D |0~------------------------------|
A |0~------------------------------|
E |0~------------------------------|

MAIN RIFF
E |--------------------------------|
B |55555555888888885555555588888888|
G |66666666999999996666666699999999|
D |66666666999999996666666699999999|
A |44444444777777774444444477777777|
E |--------------------------------|
   and
E |--------------------------------|
B |99x99x99x88x888899x99x99x88x8888|
G |99x99x99x99x999999x99x99x99x9999|
D |--------------------------------|
A |--------------------------------|
E |--------------------------------|

E |----------------------------------------------------------------|
B |----------------------------------------------------------------|
G |----------------------------------------------------------------|
D |2222666644446666222266664444666666226666444466662222666644446666|
A |2222666644446666222266664444666666226666444466662222666644446666|
E |0000444422224444000044442222444444004444222244440000444422224444|

VERSE
E |----------------------------------------------------------------|
B |5-55-55-8-88-88-5-55-55-8-88-88-5-55-55-8-88-88-----------------|
G |6-66-66-9-99-99-6-66-66-9-99-99-6-66-66-9-99-99-4-44-44-44-44-4-|
D |6-66-66-9-99-99-6-66-66-9-99-99-6-66-66-9-99-99-6-66-66-66-66-6-|
A |4-44-44-7-77-77-4-44-44-7-77-77-4-44-44-7-77-77-6-66-66-66-66-6-|
E |------------------------------------------------4-44-44-44-44-4-|

E |--------------------------------|
B |5-55-55-8-88-88-5-55-55-8-88-88-|
G |6-66-66-9-99-99-6-66-66-9-99-99-|
D |6-66-66-9-99-99-6-66-66-9-99-99-|
A |4-44-44-7-77-77-4-44-44-7-77-77-|
E |--------------------------------|

PRE-CHORUS
E |----------------------------------------------------------------|
B |----------------------------------------------------------------|
G |6-66-66-8-88-88-9-99-99---------6-66-66-8-88-88-----------------|
D |6-66-66-9-99-99-9-99-99-6-66-66-6-66-66-9-99-99-2---------------|
A |4-44-44-6-66-66-7-77-77-6-66-66-4-44-44-6-66-66-2---------------|
E |------------------------4-44-44-----------------0---------------|

CHORUS
E |----------------------------------------------------------------|
B |----------------------------------------------------------------|
G |----------------------------------------------------------------|
D |2222666644446666222266664444666666226666444466662222666644446666|
A |2222666644446666222266664444666666226666444466662222666644446666|
E |0000444422224444000044442222444444004444222244440000444422224444|

VERSE again (with one extra C#m Em before words)

PRE-CHORUS again

CHORUS again

BRIDGE/BREAKDOWN
E |----------------------------------------------------------------|
B |----------------------------------------------------------------|
G |--------------------------------9~--------------8~--------------|
D |2~------------------------------9~--------------9~--------------|
A |2~------------------------------7~--------------6~--------------|
E |0~--------------------------------------------------------------|

MAIN RIFF again

ALT. PRE-CHORUS
E |----------------------------------------------------------------|
B |----------------------------------------------------------------|
G |6-------8-------9---------------6-------8-----------------------|
D |6-------9-------9-------6-------6-------9-------2222222222222222|
A |4-------6-------7-------6-------4-------6-------2222222222222222|
E |------------------------4-----------------------0000000000000000|
                                                   ****PalmMute****

E |----------------------------------------------------------------|
B |----------------------------------------------------------------|
G |666666668888888899999999--------666666668888888899999999--------|
D |6666666699999999999999996666666666666666999999999999999966666666|
A |4444444466666666777777776666666644444444666666667777777766666666|
E |------------------------44444444------------------------44444444|

E |----------------------------------------------------------------|
B |----------------------------------------------------------------|
G |666666668888888899999999--------6666666688888888----------------|
D |6666666699999999999999996666666666666666999999992---------------|
A |4444444466666666777777776666666644444444666666662---------------|
E |------------------------4-44-44-----------------0---------------|

END

ty
comments
We did not receive enough feedback on this tab! Please rate:
print report bad tab
1 2 3 4 5
1 comment total.
0 reply
SwollenEyeballs wrote on February 23 2009, 10:56 pm

not too bad.... three stars...and the verse rythem is like this::

--- E -S E -S S S S E -S E -E | E -S E -S S S S E -S E -E
e||-4--4-4--4-4-7-7-7--7-7--7-|-4--4-4--4-4-7-7-7--7-7--7-|
B||-5--5-5--5-5-7-7-7--7-7--7-|-5--5-5--5-5-7-7-7--7-7--7-|
G||-6--6-6--6-6-9-9-9--9-9--9-|-6--6-6--6-6-9-9-9--9-9--9-|
D||-6--6-6--6-6-9-9-9--9-9--9-|-6--6-6--6-6-9-9-9--9-9--9-|
A||-4--4-4--4-4-7-7-7--7-7--7-|-4--4-4--4-4-7-7-7--7-7--7-|
E||-4--4-4--4-4-7-7-7--7-7--7-|-4--4-4--4-4-7-7-7--7-7--7-|

--- E -S E -S S S S E -S E -E | E -S E -S S S S E -S E -E
e||-4--4-4--4-4-7-7-7--7-7--7-|---------------------------|
B||-5--5-5--5-5-7-7-7--7-7--7-|-4--4-4--4-4-4-4-4--4-4--4-|
G||-6--6-6--6-6-9-9-9--9-9--9-|-4--4-4--4-4-4-4-4--4-4--4-|
D||-6--6-6--6-6-9-9-9--9-9--9-|-6--6-6--6-6-6-6-6--6-6--6-|
A||-4--4-4--4-4-7-7-7--7-7--7-|-6--6-6--6-6-6-6-6--6-6--6-|
E||-4--4-4--4-4-7-7-7--7-7--7-|-4--4-4--4-4-4-4-4--4-4--4-|

--- E -S E -S S S S E -S E -E | E -S E -S S S S E -S E -E
e||-4--4-4--4-4-7-7-7--7-7--7-|-4--4-4--4-4-7-7-7--7-7--7-|
B||-5--5-5--5-5-7-7-7--7-7--7-|-5--5-5--5-5-7-7-7--7-7--7-|
G||-6--6-6--6-6-9-9-9--9-9--9-|-6--6-6--6-6-9-9-9--9-9--9-|
D||-6--6-6--6-6-9-9-9--9-9--9-|-6--6-6--6-6-9-9-9--9-9--9-|
A||-4--4-4--4-4-7-7-7--7-7--7-|-4--4-4--4-4-7-7-7--7-7--7-|
E||-4--4-4--4-4-7-7-7--7-7--7-|-4--4-4--4-4-7-7-7--7-7--7-|

S = Sixteenth Note
E = Eight Note

(those - between the E's an S' is just to space it right, =)

I want to post or [tab]
guest
You may want to rate the tab now too:
select rating
Please do not post tabs as comments. Select "correction" instead!