Oops, an error
Loading. Please wait.

Final Tab

385 views 1 this week
1 commentread comment
1 2 3 4 5
not so good
x 2
add to favorites
launch autoscroll
font size
0
reset
how to read this tab
guitar tuner
Tab Pro tools
  • play this tab
  • loop segment
  • change instrument
  • show fretboard
  • metronome
Autoscroll
slow
fast
+/-
esc
set tempo
stop
e-------------------------------------------------------------------|
B-------------------0-----------------------------------------------|
G-----2-------2p0--------0h2----------------------------------------|
D--0----------------------------------------------------------------|
A-------------------------------------------------------------------|
E-------------------------------------------------------------------|
Repeat 4x
P=pull off
H=hammer on

This song is Awesome!!!
comments
We did not receive enough feedback on this tab! Please rate:
print report bad tab
1 2 3 4 5
1 comment total.
0 reply
SwollenEyeballs wrote on January 25 2009, 06:35 pm

This does not sound right, and if you watch him, he plays it around the seventh frets.

B||--------------------------
G||------------0--7----7p5--
D||-0--7----7p5-------------
A||--------------------------

you almost got it though. three stars.

I want to post or [tab]
guest
You may want to rate the tab now too:
select rating
Please do not post tabs as comments. Select "correction" instead!