Oops, an error
Loading. Please wait.

Who They Are Tab

258 views 1 this week
1 commentread comment
1 2 3 4 5
worth learning
x 1
add to favorites
launch autoscroll
font size
0
reset
how to read this tab
guitar tuner
Tab Pro tools
  • play this tab
  • loop segment
  • change instrument
  • show fretboard
  • metronome
Autoscroll
slow
fast
+/-
esc
set tempo
stop
Difficulty
novice
Ok so i noticed there is like no tabs at all for Children 18:3 for some reason so i 
to put one up, i saw them in concert and now i like know how to play all their songs.
          Intro and Verse
E-------------------------------|
B-------------------------------|
G-------------------------------|
D--7-7--5--5--5--3--3--5-5------| Repeats until Chorus
A--7-7--5--5--5--3--3--5-5------|
E--5-5--3--3--3--1--1--3-3------|


E-------------------------------|
B-------------------------------|
G--5----------------------------| Repeats a Few Times and goes back to the
D--5-X4-5-----3-----5-----------| Verse
A--3----5-X4--3-X8--5-----------|
E-------3-----1-----3-----------|


This is my first tab so i hope it helped im just beginning to tab songs, questions or 
can be sent to marshallamp13@aol.com
comments
We did not receive enough feedback on this tab! Please rate:
print report bad tab
1 2 3 4 5
1 comment total.
0 reply
Mr. James wrote on December 8 2009, 10:32 pm

/is bend

------------------------------787-------------------
-----------------9/10-10-10/9----8------------------
----0-2-2/3/2----------------------7-9-10-9---------
-2h3------------------------------------------------
----------------------------------------------------
----------------------------------------------------

This intro is beast... just saying.

I want to post or [tab]
guest
You may want to rate the tab now too:
select rating
Please do not post tabs as comments. Select "correction" instead!