Oops, an error
Loading. Please wait.

You Know Were All So Fond Of Dying Bass Tab

330 views 1 this week
no commentswrite comment
1 2 3 4 5
please rate
add to favorites
launch autoscroll
font size
0
reset
guitar tuner
Tab Pro tools
  • play this tab
  • loop segment
  • change instrument
  • show fretboard
  • metronome
×
Best way to learn
"You Know Were All So Fond Of Dying"
Autoscroll
slow
fast
+/-
esc
set tempo
stop
Contributor
Difficulty
novice
=============================================================================
          CHILDREN 18:3 - You Know We're All So Fond of Dying
=============================================================================

Standard Tuning: EADG

Intro
G|------------|-----------------|------------|-----------------|
D|------------|-----------------|------------|-----------------|
A|------4-4-4-|-2-2-2-2-2-2-2-2-|------4-4-4-|-----------------|   x2
E|-4-4--------|-----------------|-4-4--------|-2-2-2-2-2-2-2-2-|

Verse
G|-----------------------------------|
D|-----------------------------------|
A|-----------------------------------|   x8
E|-0-4-4-4-0-2-2-2-2-0-0-0-0-0-0-0-0-|

Pre-Chorus
G|--------------------------------------|
D|--------------------------------------|
A|--------------------------------------|
E|-2-2-2-2-2-2-2-2/11-11-11-11-11-11-11-|

Chorus
G|-----------|-----------------|-----------|-----------------|------|
D|-----------|-----------------|-----------|-----------------|------|
A|-----4-4-4-|-2-2-2-2-2-2-2-2-|-----4-4-4-|-----------------|-11/0-|
E|-4-4-------|-----------------|-4-4-------|-2-2-2-2-2-2-2-2-|------|

Interlude
G|---------------------------|
D|---------------------------|
A|-----4-4-4-2-2-2-2-2-1-1-1-|   x2
E|-4-4-----------------------|

Verse
Chorus

Bridge
G|-----------------|-----------------|-------------------|-----------------|
D|-----------------|-----------------|-------------------|-----------------|
A|-----------------|-----------------|-------------------|-2-2-2-2-2-2-2-2-|
E|-0-0-0-0-0-0-0-0-|-2-2-2-2-2-2-2-2-|-4-4-4-4-4-4-4-4-4-|-----------------|

G|-------------|-----------------|
D|-------------|-----------------|
A|-------4-4-4-|-2-2-2-2-2-1-1-1-| x8
E|-4-4-4-------|-----------------|

Pre-Chorus
Chorus

Ending
G|-----------|-----------------|-----------|-----------------|---|
D|-----------|-----------------|-----------|-----------------|---|
A|-----4-4-4-|-2-2-2-2-2-2-2-2-|-----4-4-4-|-----------------|---|
E|-4-4-------|-----------------|-4-4-------|-2-2-2-2-2-0-0-2-|-4-|

comments
We did not receive enough feedback on this tab! Please rate:
print report bad tab
1 2 3 4 5
I want to post or [tab]
guest
You may want to rate the tab now too:
select rating
Please do not post tabs as comments. Select "correction" instead!