Oops, an error
Loading. Please wait.

Angels Dont Kill Tab

version 1
version 1
39,637 views 18 this week
3 commentsread comments
1 2 3 4 5
x 8
add to favorites
launch autoscroll
font size
0
reset
how to read this tab
guitar tuner
Autoscroll
slow
fast
+/-
esc
set tempo
stop
Help us to improve Ultimate-Guitar.com Take our survey!
×
Author
e|-0-12-19-12-0-12-20-12-|-0-12-19-12-0----17----|
B|-----------------------|--------------15----15-|
G|-----------------------|-----------------------|
D|-----------------------|-----------------------|
A|-----------------------|-----------------------|
E|-----------------------|-----------------------|x2
 
[Intro]
  Guitar 1 & 2                             PH          PH
e|------|-------|-Gtr 1-|-------|-------|------------------------------|
B|------|-------|--only-|-------|-------|------------------------------|
G|------|-------|---7---|-------|-------|------------------------------|
D|------|---2---|---7---|---2---|-------|--------5--GtrTwo---5---------|
A|-x\---|---2---|-555---|---2---|-------|------------------------------|
E|-x\---|---0---|-------|---0---|-------|--0-0---3~~---0-0---3~~-------|
        pm        ..                       ...         ...

[Main Riff]
   Guitar 1
e|------------------------------------|---------------------------------------|
B|------------------------------------|---------------------------------------|
G|-------9----------9------------9--7-|-------9----------9--------------------|
D|----\9--9-----\10--10-2-2-2-2--9--7-|----/9--9-----/10--10-2-2-2-2--\10-----|
A|----------------------2-2-2-2--7--5-|----------------------2-2-2-2-------10-|
E|-0--------0-0---------0-0-0-0-------|-0--------0-0---------0-0-0-0----------|x2
 | pm       ...         .......             .        ...
 | Guitar 2
e|------------------------------------|---------------------------------------|
B|------------------------------------|---------------------------------------|
G|------------------------------------|-------9----------9--------------------|
D|------9----------10---2-2-2-2-------|----/9--9-----/10--10-2-2-2-2--\10-----|
A|----7--7-------7----7-2-2-2-2--10-8-|----------------------2-2-2-2-------10-|
E|-0--------0-0---------0-0-0-0-------|-0--------0-0---------0-0-0-0----------|x2
   pm       ...           .......             .        ...

[Verse Riff]
  Guitar 1
e|------------------------------------------------------------------------------|
B|------------------------------------------------------------------------------|
G|-5---7------------------ph-------------7--5---7-------------------------------|
D|-5---7------------------7~------9-p7---7--5---7---------------------12-10-9-7-|
A|-3---5-----7h9h10s9--------------------5--3---5-----7h9h10s9-7-9-10-----------|
E|-------0-0---------0-0-----0-0------0-----------0-0---------------------------|
 |      pm.          ...     ...      .           ...          ......
 |  Guitar 2
e|------------------------------------------------------------------------------|
B|------------------------------------------------------------------------------|
G|-5---7---------------------------------7--5---7-------------------------------|
D|-5---7------------------ph-------------7--5---7---------------------9-7-------|
A|-3---5-----7h9h10s9-----7~------7-p5---5--3---5-----7h9h10s9-7-9-10-----10-9--|
E|-------0-0----------0-0-----0-0------0----------0-0---------------------------|
         pm.          ...     ...      .          ...          ......

   Guitar 1
e|----------------------------------------------------------------|
B|----------------------------------------------------------------|
G|-5---7------------------ph-------------7--5---7----4-4-4-4-4--7-|
D|-5---7------------------7~------9-p7---7--5---7----4-4-4-4-4--5-|
A|-3---5-----7h9h10s9--------------------5--3---5----2-2-2-2-2--5-|
E|-------0-0----------0-0-----0-0------0--------------------------|
 |       pm.          ...     ...      .               .....      |
 | Guitar 2                                                           |
e|----------------------------------------------------------------|
B|----------------------------------------------------------------|
G|-5---7---------------------------------7--5---7----4-4-4-4-4--7-|
D|-5---7------------------ph-------------7--5---7----4-4-4-4-4--5-|
A|-3---5-----7h9h10s9-----7~------7-p5---5--3---5----2-2-2-2-2--5-|
E|-------0-0----------0-0-----0-0------0--------------------------|
         pm.          ...     ...      .         .....

   Harmonization Bridge
   Guitar 1
e|-----------------------|-----------------------|--------------------------|
B|-----------------------|-----------------------|-------12--11--11---------|
G|-9--11------9----------|-----------------------|-------------------12-----|
D|--------12-----10------|-10--10--12--(12)------|-----------------------14-|
A|-----------------------|-----------------12----|-(12)---------------------|
E|-----------------------|-----------------------|--------------------------|
 | Guitar 2
e|-----------------------|-----------------------|--------------------------|
B|-----------------------|-----------------------|--------------------------|
G|-12--14--11--12--------|-12------14--11--------|--------------------------|
D|-----------------14----|-----------------14----|-(14)---------------------|
A|-----------------------|-----------------------|----------\14-------------|
E|-----------------------|-----------------------|--------------------------|

 [Verse Riff]
  Guitar 1
e|------------------------------------------------------------------------------|
B|------------------------------------------------------------------------------|
G|-5---7------------------ph-------------7--5---7-------------------------------|
D|-5---7------------------7~------9-p7---7--5---7---------------------12-10-9-7-|
A|-3---5-----7h9h10s9--------------------5--3---5-----7h9h10s9-7-9-10-----------|
E|-------0-0---------0-0-----0-0------0-----------0-0---------------------------|
 |      pm.          ...     ...      .           ...          ......
 |  Guitar 2
e|------------------------------------------------------------------------------|
B|------------------------------------------------------------------------------|
G|-5---7---------------------------------7--5---7-------------------------------|
D|-5---7------------------ph-------------7--5---7---------------------9-7-------|
A|-3---5-----7h9h10s9-----7~------7-p5---5--3---5-----7h9h10s9-7-9-10-----10-9--|
E|-------0-0----------0-0-----0-0------0----------0-0---------------------------|
         pm.          ...     ...      .          ...          ......

   Guitar 1
e|-------------------------------------------------------------------|
B|-------------------------------------------------------------------|
G|-5---7------------------ph-------------7--5---7----4-4-----4-4---7-|
D|-5---7------------------7~------9-p7---7--5---7----4-4-----4-4---5-|
A|-3---5-----7h9h10s9--------------------5--3---5----2-2-----2-2---5-|
E|-------0-0----------0-0-----0-0------0-----------------------------|
 |       pm.          ...     ...      .
 Guitar 2
e|-------------------------------------------------------------------|
B|-------------------------------------------------------------------|
G|-5---7---------------------------------7--5---7----4-4-----4-4---7-|
D|-5---7------------------ph-------------7--5---7----4-4-----4-4---5-|
A|-3---5-----7h9h10s9-----7~------7-p5---5--3---5----2-2-----2-2---5-|
E|-------0-0----------0-0-----0-0------0-----------------------------|
         pm.          ...     ...      .

 [Main Riff]
   Guitar 1
e|------------------------------------|---------------------------------------|
B|------------------------------------|---------------------------------------|
G|-------9----------9------------9--7-|-------9----------9--------------------|
D|----\9--9-----\10--10-2-2-2-2--9--7-|----/9--9-----/10--10-2-2-2-2--\10-----|
A|----------------------2-2-2-2--7--5-|----------------------2-2-2-2-------10-|
E|-0--------0-0---------0-0-0-0-------|-0--------0-0---------0-0-0-0----------|x2
 | pm       ...         .......             .        ...
 | Guitar 2
e|------------------------------------|---------------------------------------|
B|------------------------------------|---------------------------------------|
G|------------------------------------|-------9----------9--------------------|
D|------9----------10---2-2-2-2-------|----/9--9-----/10--10-2-2-2-2--\10-----|
A|----7--7-------7----7-2-2-2-2--10-8-|----------------------2-2-2-2-------10-|
E|-0--------0-0---------0-0-0-0-------|-0--------0-0---------0-0-0-0----------|x2
   pm       ...           .......             .        ...

 [Guitar Solo 1] (Great Solo, Alexi is the fuckin man, man.)
e|-------15-19-17b19r17p15-14----14-17b19--r15----22--20b22r21----15b17r15b17-|
B|----17----------ph----------17---------------17--------------17-------------|
G|-16-------------------------------------------------------------------------|
D|----------------------------------------------------------------------------|
A|----------------------------------------------------------------------------|
E|----------------------------------------------------------------------------|
 |
e|-22b24r22b24~~------191715----------------191715---------------------------|
B|-----------------15-------1715-------17~--------1715--------------12-------|
G|------------------------------1614------------------1614---12--14----14-12-|
D|----------------------------------17---------------------------------------|
A|---------------------------------------------------------------------------|
E|---------------------------------------------------------------------------|
 |
e|--------------------------------------12----12-------------------20b22-(20)17-|
B|-11-12----12-14b16r14-12-11-12--------12----12-----19b21r16-------------------|
G|-------14----------------------14--14----14----14----------19p17--------------|
D|------------------------------------------------------------------------------|
A|------------------------------------------------------------------------------|
E|------------------------------------------------------------------------------|
 |
e|-20bslowly23---22b25r---7\---22p19p1722p19p17-----------------|
B|---------------------------------------------22p20p1920p19p17-|
G|--------------------------------------------------------------|
D|--------------------------------------------------------------|
A|--------------------------------------------------------------|
E|--------------------------------------------------------------|
 |
e|-22p19p1722p19p17----------------22p19p1722p19p17-19p17-|
B|-----------------22p20p1920p19p17-----------------------|
G|--------------------------------------------------------|
D|--------------------------------------------------------|
A|--------------------------------------------------------|
E|--------------------------------------------------------|
|
e|-17p15p14-15p14p12-15p14p12-17p15p14-15p14p12-|
B|----------------------------------------------|
G|----------------------------------------------|
D|----------------------------------------------|
A|----------------------------------------------|
E|----------------------------------------------|
 |                Solo Guitar 2 Harmonization   |
e|----------------------|-----------------------|
B|----------------------|-----------------------|
G|-16-14----------------|-12-11-10--------------|
D|-------17-16-14-------|----------12-11-10-----|
A|----------------17-15-|-------------------12--|
E|----------------------|-----------------------|

 [Guitar 1 & 2 Under Solo]
e|--------------------------|-----------------------| Somethin like that
B|--------------------------|-----------------------|
G|-2---5--7---------------7-|-2---5--7--9--7--9--7--|
D|-2---5--7--2-2----2-22--7-|-2---5--7--9--7--9--7--|
A|-0---3--5--2-2----2-22--5-|-0---3--5--7--5--7--5--|
E|-----------0-0----0-000---|-----------------------|
 |    pm                .
e|--------------------------|-------------------------------|
B|--------------------------|-------------------------------|
G|-2---5--7---------------7-|-2---5--7--9999--777--999--777-|
D|-2---5--7--2-2----2-22--7-|-2---5--7--9999--777--999--777-|
A|-0---3--5--2-2----2-22--5-|-0---3--5--7777--555--777--555-|
E|-----------0-0----0-000---|-------------------------------|
      pm                .

 [Verse Riff]
  Guitar 1
e|------------------------------------------------------------------------------|
B|------------------------------------------------------------------------------|
G|-5---7------------------ph-------------7--5---7-------------------------------|
D|-5---7------------------7~------9-p7---7--5---7---------------------12-10-9-7-|
A|-3---5-----7h9h10s9--------------------5--3---5-----7h9h10s9-7-9-10-----------|
E|-------0-0---------0-0-----0-0------0-----------0-0---------------------------|
 |      pm.          ...     ...      .           ...          ......
 |  Guitar 2
e|------------------------------------------------------------------------------|
B|------------------------------------------------------------------------------|
G|-5---7---------------------------------7--5---7-------------------------------|
D|-5---7------------------ph-------------7--5---7---------------------9-7-------|
A|-3---5-----7h9h10s9-----7~------7-p5---5--3---5-----7h9h10s9-7-9-10-----10-9--|
E|-------0-0----------0-0-----0-0------0----------0-0---------------------------|
         pm.          ...     ...      .          ...          ......

   Guitar 1
e|-----------|-----------------------------------|----------|-----------------|
B|-----------|-----------------------------------|----------|-----------------|
G|--5----7---|------------------ph-------------7-|--5----7--|--4-4-4-4-4------|
D|--5----7---|------------------7~------9-p7---7-|--5----7--|--4-4-4-4-4------|
A|--3----5---|-----7h9h10s9--------------------5-|--3----5--|--2-2-2-2-2-ect.-|
E|-----------|-0-0----------0-0-----0-0------0---|----------|-----------------|
               pm.          ...     ...      .                   .......
 | Guitar 2  
e|-----------|-----------------------------------|----------|-----------------|
B|-----------|-----------------------------------|----------|-----------------|
G|--5----7---|---------------------------------7-|--5----7--|--4-4-4-4-4------|
D|--5----7---|------------------ph-------------7-|--5----7--|--4-4-4-4-4------|
A|--3----5---|-----7h9h10s9-----7~------7-p5---5-|--3----5--|--2-2-2-2-2-ect.-|
E|-----------|-0-0----------0-0-----0-0------0---|----------|-----------------|
               pm.          ...     ...      .                   .......

  Guitars 1 & 2
e|---|-----|
B|---|-----|
G|---|-----|
D|-2-|-2-2-|
A|-2-|-2-2-|
E|-0-|-0-0-|

 [Bridge Lick]
e|-----------------------------------------------|
B|-----------13-13-------12-12-------10-10-------|
G|-----------------14-14-------12-12-------11-11-|
D|-14--14-14-------------------------------------|
A|-----------------------------------------------|
E|-----------------------------------------------|x3
  pm   ....                    .....

e|--------------------------------------------14-|
B|-----------13-13----12-15-12-------------15----|
G|-----------------14----------12-------14-------|
D|-14--14-14-------------------------16----------|
A|--------------------------------17-------------|
E|-----------------------------------------------|

e|-----------------------------------------------|-24--\------||-or-12--\------|
B|-----------13-13-------12-12-------10-10-------|------\-----||---------\-----|
G|-----------------14-14-------12-12-------11-11-|-------\----||-if you---\----|
D|-14--14-14-------------------------------------|--------\---||-dont have-\---|
A|-----------------------------------------------|---------\--||-24 frets---\--|
E|-----------------------------------------------|----------\-||-------------\-|
  pm   ....                    .....

 [Guitars 1 & 2] Under Bridge Lick
e|------|------|---------|-------|-------|
B|------|------|---------|-------|-------|
G|------|------|------5--|-------|-------|
D|------|--2---|--5---5--|---2---|-------|
A|-x\---|--2---|--5---3--|---2---|-x\----|
E|-x\---|--0---|--3------|---0---|-x\----|

 [Bridge Lick 2]
e|-13-1st time only-----------|----------------------------------15-|
B|----14----13----11----------|----14----13-16-13-------------16----|
G|-------15----13----13-12----|-------15----------13-------15-------|
D|-15----------------------15-|-15-------------------15\17----------|
A|----------------------------|-------------------------------------|
E|----------------------------|-------------------------------------|

e|--------------------------| Not sure about all of this, for some reason
B|--------------------------| i just cant hear the first power chord played.
G|-9--5-----7--9-7-5------7-|
D|-9--5--5--7--9-7-5---5--7-|
A|-7--3--5--5--7-5-3---5--5-|
E|-------3-------------3----|x2

 [Pre-2nd Solo] Thing
  Somethin like this
  Guitar 1
e|--------|
B|--------|
G|--------|
D|------0-|
A|-2------|
E|--------|

 |Guitar 2|
e|--------|
B|--------|
G|--------|
D|--------|
A|-0----0-|
E|--------|

 [2nd Guitar Solo] (Keyboard plays pretty much the same stuff along with solo)
e|------------22~-19-17-19-|----------17b19r17b19-19-17-19-|-22----22\20----|
B|--/17-19-20--------------|-17-19-20----------------------|----20-------20-|
G|-------------------------|-------------------------------|----------------|
D|-------------------------|-------------------------------|----------------|
A|-------------------------|-------------------------------|----------------|
E|-------------------------|-------------------------------|----------------|

e|-20\19----19\17----17\15----15\14----------15--19------------------|
B|-------17-------19-------17-------17-15-17---------17-15-17-19--20-|
G|-------------------------------------------------------------------|
D|-------------------------------------------------------------------|
A|-------------------------------------------------------------------|
E|-------------------------------------------------------------------|

e|----------15--19------------------|------------22~-19-17-19-|
B|-17-15-17---------17-15-17-19--20-|--/17-19-20--------------|
G|----------------------------------|-------------------------|
D|----------------------------------|-------------------------|
A|----------------------------------|-------------------------|
E|----------------------------------|-------------------------|

e|----------17b19r17b19-19-17-19-------------------15p12-15p12-------|
B|-17-19-20----------------------17p15-17p15-------------------15p12-|
G|-------------------------------------------16p14-------------------|
D|-------------------------------------------------------------------|
A|-------------------------------------------------------------------|
E|-------------------------------------------------------------------|

e|-17p15-17p15-------19p17-19p17--------20p19p17-20p19p17-------|
B|-------------17p15-------------20p17--------------------20h22-|
G|--------------------------------------------------------------|
D|--------------------------------------------------------------|
A|--------------------------------------------------------------|
E|--------------------------------------------------------------|

e|------------------------------------------------------------------------------|
B|-20p19p17-20p19p17-15h19-17p15----17p15p12----15p12-------15p12---------------|
G|-------------------------------16----------14-------14-12-------14p12p9---12~~|
D|------------------------------------------------------------------------------|
A|------------------------------------------------------------------------------|
E|------------------------------------------------------------------------------|

 [Riff Under 2nd Solo]
e|---------------------------------|-----------------------------------|---|
B|---------------------------------|-----------------------------------|---|
G|-------5---------------7---------|-------5---------999-12-11-999-7-7-|---|
D|-2-2-2-5-2-2-2-2-2-2-2-7-2-2-2-2-|-2-2-2-5-2-2-2-2-999-12-11-999-7-7-|-2-|
A|-2-2-2-3-2-2-2-2-2-2-2-5-2-2-2-2-|-2-2-2-3-2-2-2-2-777-10-9--777-5-5-|-2-|
E|-0-0-0---0-0-0-0-0-0-0---0-0-0-0-|-0-0-0---0-0-0-0-------------------|-0-|
     pm.   .......   ...   .......     ...   ...........       ...

 Guitar 1
e|--------------------------------------| Push down a little on tremelo arm and
B|--------------------------------------| release immediately, You got the
G|-9--\-9--\-9--\-9--\-9--\-9--\-9--\-9-| idea, Its not hard to figure out.
D|-----\----\----\----\----\----\----\--| Prollylike something you did when you
A|--------------------------------------| first picked up a guitar with a
E|--------------------------------------| tremelo arm. I know thats what
   | Guitar 2             anyone who doesnt play does when they pick up my guitar
e|--------------------|                     and starts puttin it out of tune.
B|--------------------|                     Bastards.....
G|-12---14-11---12----|
D|-----------------14-|
A|--------------------|
E|--------------------|

[Harmonization Bridge]
  Guitar 1
e|----------------------|-----------------------|--------------------------|
B|----------------------|-----------------------|-------12--11--11---------|
G|-9---11------9--------|-----------------------|-------------------12-----|
D|--------12-----10-----|-10--10-12--(12)-------|-----------------------14-|
A|----------------------|-----------------12----|-(12)---------------------|
E|----------------------|-----------------------|--------------------------|
 | Guitar 2
e|-----------------------|-----------------------|-------------------------|
B|-----------------------|-----------------------|-------------------------|
G|-12---14-11---12-------|-12------14--11--------|-------------------------|
D|-----------------14----|-----------------14----|-(14)--------------------|
A|-----------------------|-----------------------|----------\14------------|
E|-----------------------|-----------------------|-------------------------|

 Guitars 1 & 2
e|-----------------|-------------|
B|-----------------|-------------|Somethin like that
G|-4-4-4-4-4-4-4-4-|----------ph-|
D|-4-4-4-4-4-4-4-4-|----ph-----7-|
A|-2-2-2-2-2-2-2-2-|----7--------|
E|-----------------|-0-----0-----|
   pm.............   .     .

  [Main Riff]
   Guitar 1
e|------------------------------------|---------------------------------------|
B|------------------------------------|---------------------------------------|
G|-------9----------9------------9--7-|-------9----------9--------------------|
D|----\9--9-----\10--10-2-2-2-2--9--7-|----/9--9-----/10--10-2-2-2-2--\10-----|
A|----------------------2-2-2-2--7--5-|----------------------2-2-2-2-------10-|
E|-0--------0-0---------0-0-0-0-------|-0--------0-0---------0-0-0-0----------|x2
 | pm       ...         .......         .        ...
 | Guitar 2
e|------------------------------------|---------------------------------------|
B|------------------------------------|---------------------------------------|
G|------------------------------------|-------9----------9--------------------|
D|------9----------10---2-2-2-2-------|----/9--9-----/10--10-2-2-2-2--\10-----|
A|----7--7-------7----7-2-2-2-2--10-8-|----------------------2-2-2-2-------10-|
E|-0--------0-0---------0-0-0-0-------|-0--------0-0---------0-0-0-0----------|x2
  pm       ...           .......             .        ...

 [Riff 1 End Variation]
e|--------------------------| somethin like that
B|--------------------------|
G|--------------------------|
D|-----ph----ph----ph----ph-|
A|-----7-----7-----7-----7--|
E|-0-0---0-0---0-0---0-0----|
  pm.   ...   ...   ...


************************************

| ~    Vibrato
| /    Slide up
| \    Slide down
| .    Staccato
| p    Pull-off
| h    Hammer-on
| (n)  Ghost note
| r    Release
| b    Bend

************************************
Suggest correction
comments
print report bad tab
3 comments total.
0 reply
Minika 10 Dec 06, 2007 08:33 AM

Hey.

Cool tab, I'll need that lol. Just one question: what tuning is the song played in?

0 reply
thefish79 31 Dec 28, 2013 05:46 PM

It's in C standard, just like 99% of all CoB songs

0 reply
zjmellet 43 May 07, 2008 04:03 PM

Minika - I think D because of the way the chords look.

guest
You may want to rate the tab now too:
select rating
Wanna post a correction for this tab? Suggest correction