Oops, an error
Loading. Please wait.

Banned From Heaven Tab

version 1
version 1

Solo

Whole song

Interactive

3,569 views 3 this week
no commentswrite comment
1 2 3 4 5
x 5
add to favorites
launch autoscroll
font size
0
reset
how to read this tab
guitar tuner
Autoscroll
slow
fast
+/-
esc
set tempo
stop
Help us to improve Ultimate-Guitar.com Take our survey!
×
Author
Difficulty
Tuning
intermediate
C G C F A D
Banned From Heaven Solo
Children Of Bodom
Blooddrunk

Okay! Solos for banned from heaven.

comes in at around 2:40

D|------------------------/20--19~----24p23h24\----|
A|-------------------------------------------------|
F|------17--16~--16\-------------------------------|
C|-/14----------------/14--------------------------|
G|-------------------------------------------------|
C|-------------------------------------------------|

   
-------------17-15-17b(19)-17-15--------|
--\15-----15--------------x------17~----|
----------------------------------------|
-------15-------------------------------|
----------------------------------------|
----------------------------------------|
 
------------15-------17-15----15-17-17-15----------------------------|
---17-15-17----17-15-------17-------------15-17-15-------------------|
---------------------------------------------------17-16-14-------17-|
------------------------------------------------------------17-16----|
---------------------------------------------------------------------|
---------------------------------------------------------------------|


--21b--21pbr--19--19b~---\17p13------------|
--------------------------------15---------|
-----------------------------------14p12~--|
-------------------------------------------|
-------------------------------------------|
-------------------------------------------|

-----------/12-----------------------------------|
---------------15p13p12-13p12--------------------|
---12-14-16--------------------14p12-------------|
-------------------------------------15p14p12----|
----------------------------------------------15/|
----------------------------------------------------|


   S  S  S  S  S  S  S  S  S  S  S  S  S  S  S  S  
--------------------------------------------------|
--------------------------------------------17----|
--------------------19----------16-------16-------|
--14-16-17-14-16-17----16-17-19----17-19-------17-|
--------------------------------------------------|
--------------------------------------------------|


-----------17----15-17-19-17-19-20-22-19-20-22-24-|
--------17----17----------------------------------|
-----16-------------------------------------------|
--19----------------------------------------------|
--------------------------------------------------|
--------------------------------------------------|

--19-20-22-20-19----------------------------------------
-----------------22-20-19-20-22-20-19-22-19-17----------
-----------------------------------------------21-19-17-
--------------------------------------------------------
--------------------------------------------------------
--------------------------------------------------------

------------------------------------------------|
------------------------------------------------|
------17----------------------------------------|
21-19----21-19-17-21-19-17-19-17---19-17-19-17~-| Hold.
---------------------------------19-------------|
------------------------------------------------|

:] One done.

[Verse/Bridge]

Guitar Solo II
Comes in Around 3:30

D|-----------------------------------------|
A|-/10----------12--------13--------15-----|
F|-/12b(14)-----14b(16)---15b(17)---17br---|
C|-----------------------------------------|
G|-----------------------------------------|
C|-----------------------------------------|

---------20b~(22)\---------------------------------------17----------|
--15----------------------------------------/20p17----------17-------|
--17b(19)-----------/17p16-------17p16--------------19p17------19p17-|
---------------------------19p17-------19p17-------------------------|
---------------------------------------------------------------------|
---------------------------------------------------------------------|
 
--20p17-------20p17-------------------17----------|
--------20p17-------20p17-20p17----------17-------|
--------------------------------19p17-------19p17-|
--------------------------------------------------|
--------------------------------------------------|
--------------------------------------------------|
   
-----[17]------------------------------------------|
--------------------20b(21)------------------------|
--19-------19-19-19---------19-----------17--------|
--------------------------------17-19-20----19\----|
---------------------------------------------------|
---------------------------------------------------|

---------------------------------------------------|
---------------------------------------------------|
------14----13----12----11----------I dont Know :[-|
--/12----12----12----12----12-10-------------------|
---------------------------------12----------------|
---------------------------------------------------|
    
----------------------------------12--------|
-------------------------------------13~----|
----------------------14-12-----------------|
--10----10-12~-----12-------12--------------|
-----12---------12-------------12-----------|
--------------------------------------------|


--15-12--------------------------------------------------------------------|
--------13-13b-13-12-13-12----12-------------------------------------------|
---------------------------14----14-12-14-12----14----12----12-------------|
---------------------------------------------14----14----14----14-12-------|
---------------------------------------------------------------------15-14\|
---------------------------------------------------------------------------|

---------------------------------------|
---------------------------------------|
----------------------------7------7-9-|
-------7-9----7-x-9-x-0-9h10--9-10-----|
-\8-10-----10-----something weird------|
----------------------...sorry.--------|
              
------------------------------------------------------------|
-------------------8------8-10----8-10-12-12--10~~~---------|
-----7-9-10-7-9-10---9-10------10-------------------Have----|
--10--------------------------------------------------Fun---|
---------------------------------------------------------:]-|
------------------------------------------------------------|
Suggest correction
comments
print report bad tab
guest
You may want to rate the tab now too:
select rating
Wanna post a correction for this tab? Suggest correction