Oops, an error
Loading. Please wait.

Bastards Of Bodom Guitar Pro

version 1
version 1

Whole song

Interactive

22,865 views 3 this week
4 commentsread comments
1 2 3 4 5
excellent!
x 13
add to favorites
guitar tuner
Autoscroll
slow
fast
+/-
esc
set tempo
stop
Contributor
Filesize
Instruments
43 Kb
rhythm guitar, lead guitar, bass, percussion, keyboard
"Bastards Of Bodom"
demo version
Play now

or get full version for Free

Get full version now!
To learn and play this song
in Tab Pro, start free trial
Start free trial

or get $10 off Welcome Bonus

Get welcome bonus
Get access to Tab Pro version of “Bastards Of Bodom”!
Tab Pro is a premium guitar tab service, available on PC, Mac, iOS and Android
START FREE TRIAL
To download “Bastards Of Bodom” Guitar Pro tab click button below
Please note that you must have Guitar Pro software installed on your
computer in order to view this file.
comments
report bad tab
4 comments total. Showing first comments.
+1 reply
CoBRaGe wrote on February 28 2009, 11:56 am

Half of this is incorrect.

0 reply
gmanwarman wrote on April 18 2010, 03:19 pm

I dont think its incorrect, Its just wrongly tabbed but the notes are good, 5 out of 5 =)

+1 reply
espltdmmv07fboy wrote on June 27 2010, 07:59 am

soolo menee tällee :

d------------------|---------------|--------------|
a------------------|---------------|--------------|
f--------10---10-9-|--10---10-9----|-------10---9-|
c-6-sl-8----8------|8----8---------|-----8----8---|
g------------------|---------------|--------------|
d------------------|---------------|--------------|

d------------------|---------------|--------------|
a------------------|---------------|--------------|
f------14---14-12--|---14---14-12--|-------14--12-|
c---12---12--------|-12---12-------|----12---12---|
g------------------|---------------|--------------|
d------------------|---------------|--------------|

w/bar- - - - - - - - - - - - - - - - - - - -
\/ \/ \/ \/ \/
d---------------------------------------------------
a---------------------------------------------------
f--7---7-5-7---9-7-9---10-9-10---12-10-12---14-12-14
(_____________________________________________
c---------------------------------------------------
g---------------------------------------------------
d---------------------------------------------------

- - - - - - - - - - - - - - - - - - - - - - |
\/ \/ \/ \/
d---------------------------------------------------|
a---------------------------------------------------|
f--15-14-15---17-15-17---19-17-19---20-19-20---20b1-|
___________________________________________)
c---------------------------------------------------|
g---------------------------------------------------|
d---------------------------------------------------|

d---------1010---------1010----------10-|
a---------1010---------1010----------10-|
f---12b1---------12b1----------12b1-----|
c---------------------------------------|
g---------------------------------------|
d---------------------------------------|

d--12-13-12-10--------------------------------------------
a-------------13-12-10-13-12-10---10-12-10-13-10-12-10----
f-------------------------------13---------------------13-
c---------------------------------------------------------
g---------------------------------------------------------
d---------------------------------------------------------

Harm. sl.
d------------------------|------------------------------|
a-10-12-10---------------|------------------------------|
f---------13-12-10--12---|--12--10----------------------|
c------------------------|---------12--10---------------|
g------------------------|----------------12--10--13\---|
d------------------------|------------------------------|

d------------------------------------------------------
a-------------------------------18-18-16-18-20-16-18-20
f-------------------17-17-15-15------------------------
c-15-15-15-14-14-14------------------------------------
g------------------------------------------------------
d------------------------------------------------------

3x
d-17-18-20-17-18-20-||--22---18---20-----22---20---18----||
a-------------------||-----------------------------------||
f-------------------||o---------------------------------o||
c-------------------||0---------------------------------o||
g-------------------||-----------------------------------||
d-------------------||-----------------------------------||

d--22----18----20b1------------------|
a------------------------------------|
f------------------------------------|
c------------------------------------|
g------------------------------------|
d------------------------------------|

I want to post or [tab]
guest
You may want to rate the tab now too:
select rating
Please do not post tabs as comments. Select "correction" instead!