Oops, an error
Loading. Please wait.

Bed Of Razors Tab

version 1
version 1
56,718 views 6 this week
7 commentsread comments
1 2 3 4 5
x 12
add to favorites
launch autoscroll
font size
0
reset
how to read this tab
guitar tuner
Autoscroll
slow
fast
+/-
esc
set tempo
stop
Help us to improve Ultimate-Guitar.com Take our survey!
×
Tuning
D G C F A D
CHILDREN OF BODOM - BED OF RAZORS
From the Album HATEBREEDER
Copyright 1999 NUCLEAR BLAST
New Version - JAN '02
Tune Gtr to D

[Intro ](Keyboards)

 [Riff 1]
D|-------------------------------------------------------------------|
A|--12--8_\7-------------10--11--8_\7-------------10--12--8_\7-------|
F|*--^---sl---9--11--12-------^----sl---9--11--12-------^---sl---9--*|GTR 1
C|*-----------------------------------------------------------------*|
G|-------------------------------------------------------------------|
D|-------------------------------------------------------------------|

D|-------------------------------------------------------------------|
A|-------------------------------------------------------------------|
F|*--------------------------3--------------------------------------*|GTR 2
C|*-2------------------------3-------------------------2------------*| 
G|--2------------------------1-------------------------2-------------|
D|--0------------------------*-------------------------0-------------|

    * = Staccato                                       *
D|----------------------10-------------------------------------------|
A|----------10--12_/13---^--13\_12---10------12--8_\7-------------10-|
F|*-11--12--------sl-----------sl--------12---^---sl---9--11--12----*|GTR 1
C|*---------------------------------------^-------------------------*|
G|-------------------------------------------------------------------|
D|-------------------------------------------------------------------|

D|-------------------------------------------------------------------|
A|-------------------------------------------------------------------|
F|*---------------------5----------------7--------------------------*|GTR 2
C|*---------------------5----------------7----2---------------------*|
G|----------------------3----------------5----2--------2---2---2-----|
D|----------------------^----------------^----0--------0---0---0-----|
                                             ^        .   .   .

D|-------------------------------------------------------------10----|
A|--11--8_\7-------------10--12--8_\7-------------10--12_/13---^-----|
F|*--^---sl---9--11--12-------^----sl---9--11--12--------sl---------*|GTR 1
C|*-----------------------------------------------------------------*|
G|-------------------------------------------------------------------|
D|-------------------------------------------------------------------|

D|-------------------------------------------------------------------|
A|-------------------------------------------------------------------|
F|*--3---------------------------------------------------------5----*|GTR 2
C|*--3------------3---3---3---2--------------------------------5----*|
G|---1------------1---1---1---2--------------------2---2---2---3-----|
D|---^------------------------0--------------------0---0---0---^-----|
                 .   .   .   ^                    .   .   .

                       (End Riff 1)
D|--------------------------------|
A|--13_\12--10--------------------|
F|*---sl--------12---------------*|GTR 1
C|*--------------^---------------*|
G|--------------------------------|
D|--------------------------------|

D|--------------------------------|
A|--------------------------------|
F|*------------2------------------|GTR 2
C|*------------0------------------|
G|-------------0------------------|
D|-------------^------------------|

 Fill 1                                                   (End Fill 1)
D|-------------------------------------------------------------------|
A|-------------------------------------------------------------------|
F|*-0-\-----------------------------\-----------2.3__/--------------*|GTR 1
C|*--sl-----------------------------sl----------n.h.-sl-------------*|
G|-------------------------------------------------------------------|
D|-------------------------------------------------------------------|
dive w/bar                                     raise w/bar    

D|-------------------------------------------------------------------|
A|-------------------------------------------------------------------|
F|*-9---------------------------------------------------------------*|GTR 2
C|*-9---------------------------------------------------------------*|
G|--7----------------------------------------------------------------|
D|--0----------------------------------------------------------------|
   ^

 Riff 1.a
D|-------------------------------------------------------------------|
A|--12--8_\7-------------10--11--8_\7--------------10--12--8_\7------|
F|*--^---sl---9--11--12-------^----sl---9--11--12-------^---sl---9--*|GTR 1
C|*-----------------------------------------------------------------*|
G|-------------------------------------------------------------------|
D|-------------------------------------------------------------------|

D|-------------------------------------------------------------------|
A|-------------------------------------------------------------------|
F|*--9------9-9--9-----------10------10-10--10---------9------9-9--9*|GTR 2
C|*--9------9-9--9-----------10------10-10--10---------9------9-9--9*| 
G|---7------7-7--7-----------8-------8--8---8----------7------7-7--7-|
D|---0------0-0--0-----------^-------------------------0------0-0--0-|
    ^                                                 ^
|----------------------10-------------------------------------------|
|----------10--12_/13---^--13\_12---10------12--8_\7-------------10-|
|*-11--12--------sl-----------sl--------12---^---sl---9--11--12----*|GTR 1
|*---------------------------------------^-------------------------*|
|-------------------------------------------------------------------|
|-------------------------------------------------------------------|

D|-------------------------------------------------------------------|
A|-------------------------------------------------------------------|
F|*---------------------5-5-5-----------7-7-7-9------9-9--9---------*|GTR 2
C|*---------------------5-5-5-----------7-7-7-9------9-9--9---------*|
G|----------------------3-3-3-----------5-5-5-7------7-7--7----------|
D|----------------------^---------------^-----0------0-0--0----------|
                                             ^
|-------------------------------------------------------------10----|
|--11--8_\7-------------10--12--8_\7-------------10--12_/13---^-----|
|*--^---sl---9--11--12-------^----sl---9--11--12--------sl---------*|GTR 1
|*-----------------------------------------------------------------*|
|-------------------------------------------------------------------|
|-------------------------------------------------------------------|

D|-------------------------------------------------------------------|
A|-------------------------------------------------------------------|
F|*--10------10-10--10--------9-------9-9--9-------------------5-5-5*|GTR 2
C|*--10------10-10--10--------9-------9-9--9-------------------5-5-5*|
G|---8-------8--8---8---------7-------7-7--7-------------------3-3-3-|
D|---^------------------------0-------0-0--0-------------------^-----|
                             ^
                    (End Riff 1.a)

D|--------------------------------|
A|--13_\12--10--------------------|
F|*---sl--------12---------------*|GTR 1
C|*--------------^---------------*|
G|--------------------------------|
D|--------------------------------|

D|--------------------------------|
A|--------------------------------|
F|*-------------2-2-2------------*|GTR 2
C|*-------------0-0-0------------*|
G|--------------0-0-0-------------|
D|--------------^-----------------|

Riff 1a 1.75tx

 Fill 2                                               (End Fill 2)
D|--15-----------1413-----------------12-------------------------|
A|----14-------13--p-12-------------11---------------------------|
F|*-----15-------------13-------------------------121415~-------*|GTR 1
C|*-------16-------------14---------------------12--------------*|
G|----------15--------------13------------101213-----------------|
D|---------------------------------------------------------------|

D|--12-----------1110-----------------9--------------------------|
A|----11------10---p--9-------------8----------------------------|
F|*-----12-------------10--------------------------9-1012~------*|GTR 2
C|*-------13-------------11----------------------9--------------*|
G|----------12--------------8-------------7-9-10-----------------|
D|---------------------------------------------------------------|

 Riff 2 (Verse)
D|-----------------------------------------------|
A|-----------------------------------------------|
F|*-------------------------------------2-------*|GTR 1
C|*-------------------------------------0-------*|
G|--------------------------------------0--------|
D|-0-0-0-0-0-0-0-0-0-0-0-0-0-0-0-0-0-0--^--------|
  . . . . . . . . . . . . . . . . . .           

D|-----------------------------------------------|
A|-----------------------------------------------|
F|*---------------------------------------------*|GTR 2
C|*------10--9-------7---9-------10--9-7777-7~--*|
G|-------8---7-------5---7-------8---7-5555-8~---|
D|-0-0-0-^-0-^-0-0-0-^-0-^-0-0-0-^-0-^------^----|
  . . .   .   . . .   .   . . .   .

D|-----------------------------------------------|
A|-----------------------------------------------|
F|*------------------------------------------4~-*|GTR 1
C|*---------------------------------------------*|
G|-------------------------------------0-2-3-2~--|
D|-0-0-0-0-0-0-0-0-0-0-0-0-0-0-0-0-0-0-------^---|
  . . . . . . . . . . . . . . . . . . . . . 

D|-----------------------------------------------|
A|-----------------------------------------------|
F|*------------------------------------------7~-*|GTR 2
C|*------10--9-------7---9--------10--9---------*|
G|-------8---7-------5---7--------8---7-578--5~--|
D|-0-0-0-^-0-^-0-0-0-^-0-^-0-0-0--^-0-^------^---|
  . . .   .   . . .   .   . . .    .   ...

D|-----------------------------------------------|
A|-----------------------------------------------|
F|*---------------------------------------------*|GTR 1
C|*---------------------------------------------*|
G|-3-3-3-3-3-3-3-3-3-3-3-------------2-2-2-2-2-2-|
D|-----------------------2-2-2-2-2-2-------------|
  . . . . . . . . . . . . . . . . . . . . . . . 

D|-8----7----------------------------------------|
A|-----------10----8----7__8__7------------------|
F|*-----------------------h-p------9----8---11\-*|GTR 2
C|*------------------------------------------sl-*|
G|-----------------------------------------------|
D|-----------------------------------------------|

D|-----------------------------------------------|
A|-----------------------------------------------|
F|*----------------------------------------2----*|GTR 1
C|*------3---2-------0---2-------3---2-----0----*| 
G|-------3---2-------0---2-------3---2-----0-----|
D|-0-0-0-^-0-^-0-0-0-^-0-^-0-0-0-^-0-^--0--^-----|
  . . .   .   . . .   .   . . .   .    .

D|-----------------------------------------------|
A|-----------------------------------------------|
F|*---------------------------------------------*|GTR 2
C|*------10--9-------7---9--------10---9-7777-7~*|
G|-------8---7-------5---7--------8----7-5555-8~-|
D|-0-0-0-^-0-^-0-0-0-^-0-^-0-0-0--^--0-^------^--|
  . . .   .   . . .   .   . . .     .

D|-----------------------------------------------|
A|-----------------------------------------------|
F|*---------------------------------------------*|GTR 1
C|*------3---2-------0----2-------3------2-2----*|
G|-------3---2-------0----2-------3------2-3-2-2-|
D|-0-0-0-^-0-^-0-0-0-^-0--^-0-0-0-^--0-------0---|
  . . .   .   . . .   .    . . .      

D|-----------------------------------------------|
A|-----------------------------------------------|
F|*---------------------------------------------*|GTR 2
C|*------10--9-------7---9-------10--9-5---4-5--*|
G|-------8---7-------5---7-------8---7-7---5-7---|
D|-0-0-0-^-0-^-0-0-0-^-0-^-0-0-0-^-0-^-----------|
  . . .   .   . . .   .   . . .   .

Riff 1a 1.75tx

 Fill 3
D|-----------------12--12141514~--\------|
A|-1213151315121315--15-----------sl-----|
F|*-------------------------------------*|GTR 1
C|*-------------------------------------*| 
G|---------------------------------------|
D|---------------------------------------|

D|---------------------------------------|
A|-----------------13--13151715~--\------|
F|*1214161416121416--16-----------sl----*|GTR 2
C|*-------------------------------------*| 
G|---------------------------------------|
D|---------------------------------------|

 Riff 3 (chorus)
D|-------------------------------------------------|
A|-------------------------------------------------|
F|*-----------------------------------------------*|GTR 1
C|*9---9-9-9---4---4-4-4---9---9-9-9---4---4-4-4--*| 
G|-7---7-7-7---2---2-2-2---7---7-7-7---2---2-2-2---|
D|-^-----------^-----------^-----------^-----------|

D|-------------------------------------------------|
A|-------------------------------------------------|
F|*-----------------------------------------------*|GTR 2
C|*9---9-9-9---4---4-4-4---9---9-9-9---4---4-4-4--*| 
G|-7---7-7-7---2---2-2-2---7---7-7-7---2---2-2-2---|
D|-^-----------^-----------^-----------^-----------|

D|-------------------------------------------------|
A|-------------------------------------------------|
F|*-----------------------------------------------*|GTR 1
C|*5---5-5-5---4---4-4-4---5---5-9-7-5-4----------*| 
G|-3---3-3-3---5---5-5-5---^-----------5-----------|
D|-^-----------^-----------------------^-----------|
                              . . . .                    
 
D|-------------------------------------------------|
A|-------------------------------------------------|
F|*-----------------------------------------------*|GTR 2
C|*5---5-5-5---7---7-7-7---------------7---7-7-7--*| 
G|-3---3-3-3---5---5-5-5---5---5-5-5---5---5-5-5---|
D|-^-----------^-----------3---3-3-3---^-----------|
                          ^    
|------------------------------------------------------------------|
|------------------------------------------------------------------|
|*/9---7/9-11-12-11_12-11\7-7777-/9---7/9-11-12-11_12-11\7-7777---*|GTR 1
|*sl----sl---------h-----sl------sl---sl----------h----sl---------*| 
|------------------------------------------------------------------|
|------------------------------------------------------------------|

D|------------------------------------------------------------------|
A|------------------------------------------------------------------|
F|*----------------------------------------------------------------*|GTR 2
C|*9---9-9-9----4-----4-4-4---9---9-9-9-----4----4-4-4-------------*| 
G|-7---7-7-7----2-----2-2-2---7---7-7-7-----2----2-2-2--------------|
D|-^------------^-------------^-------------^-----------------------|

D|----------------------------------------------------------------|
A|------------------------------10-12---12-12-10------------------|
F|*/9---9-9-11-12-11---11-11-12------------------12-11~---\------*|GTR 1
C|*sl-----------------------------------------------------sl-----*| 
G|----------------------------------------------------------------|
D|----------------------------------------------------------------|

D|----------------------------------------------------------------|
A|----------------------------------------------------------------|
F|*--------------------------------------------------------------*|GTR 2
C|*5---5-5-5-----7----7--7--7----------------------7----7-7-7----*| 
G|-3---3-3-3-----5----5--5--5-----5----5--5--5-----5----5-5-5-----|
D|-^-------------^----------------3----3--3--3-----^--------------|
                                 ^                
 
D|-------------------------------------------------|
A|-------------------------------------------------|
F|*-----------------------------------------------*|GTR 1
C|*9---9-9-9---4---4-4-4---9---9-9-9---4---4-4-4--*| 
G|-7---7-7-7---2---2-2-2---7---7-7-7---2---2-2-2---|
D|-^-----------^-----------^-----------^-----------|

D|-------------------------------------------------|
A|-------------------------------------------------|
F|*-----------------------------------------------*|GTR 2
C|*9---9-9-9---4---4-4-4---9---9-9-9---4---4-4-4--*| 
G|-7---7-7-7---2---2-2-2---7---7-7-7---2---2-2-2---|
D|-^-----------^-----------^-----------^-----------|

D|-------------------------------------------------|
A|-------------------------------------------------|
F|*-----------------------------------------------*|GTR 1
C|*------------------------------------7-5-4------*| 
G|-5---5-5-5---7---7-7-7---5---5-9-7-5-------7-5-4-|
D|-3---3-3-3---5---5-5-5---^-----------------------|
  ^           ^               . . . . . . . . . .

D|-------------------------------------------------|
A|-------------------------------------------------|
F|*-----------------------------------------------*|GTR 2
C|*------------------------7---7-7-7--------------*| 
G|-5---5-5-5---7---7-7-7---5---5-5-5---7---7-7-7---|
D|-3---3-3-3---5---5-5-5---^-----------5---5-5-5---|
  ^           ^                       ^

D|------------------------------------------------------------------|
A|------------------------------------------------------------------|
F|*/9---7/9-11-12-11_12-11\7-7777-/9---7/9-11-12-11_12-11\7-7777---*|GTR 1
C|*sl----sl---------h-----sl------sl---sl----------h----sl---------*| 
G|------------------------------------------------------------------|
D|------------------------------------------------------------------|

D|------------------------------------------------------------------|
A|------------------------------------------------------------------|
F|*----------------------------------------------------------------*|GTR 2
C|*9---9-9-9---4---4-4-4------9---9-9-9---4---4-4-4----------------*| 
G|-7---7-7-7---2---2-2-2------7---7-7-7---2---2-2-2-----------------|
D|-^-----------^--------------^-----------^-------------------------|

D|-------------------------------------------------------|
A|-------------------------------------------------------|
F|*------------------------9--11-11-11-9----------------*|GTR 1
C|*9-9-9-11-12-11-11-11-12----------------12-11~---\----*| 
G|-------------------------------------------------sl----|
D|-------------------------------------------------------|

D|-------------------------------------------------------|
A|-------------------------------------------------------|
F|*-----------------------------------------------------*|GTR 2
C|*---------------------------7---7-7-7-----------------*| 
G|-5---5-5-5----7---7-7-7-----5---5-5-5----7---7-7-7-----|
D|-3---3-3-3----5---5-5-5-----^------------5---5-5-5-----|
  ^            ^                          ^

D|-----------------------------------------------------------|
A|--------------------------------------------------------10-|
F|*/9--7/9-11-12-11_12-11\7-7777-/9--9-9-11-12-11-11-1112---*|GTR 1
C|*sl---sl---------h-----sl------sl-------------------------*|
G|-----------------------------------------------------------|
D|-----------------------------------------------------------|

D|-----------------------------------------------------------|
A|-----------------------------------------------------------|
F|*---------------------------------------------------------*|GTR 2
C|*9---9-9-9---4---4-4-4------9---9-9-9----4----4-4-4-------*|
G|-7---7-7-7---2---2-2-2------7---7-7-7----2----2-2-2--------|
D|-^-----------^--------------^------------^-----------------|

D|--------------------------12-14---14-17-15-14----------|
A|-12-1212-14-15-1414-14-15---------------------17-------|
F|*-----------------------------------------------------*|GTR 1
C|*-----------------------------------------------------*|
G|-------------------------------------------------------|
D|-------------------------------------------------------|

D|-------------------------------------------------------|
A|-------------------------------------------------------|
F|*-----------------------------------------------------*|GTR 2
C|*---------------------------7---7-7-7-----------------*|
G|-5---5-5-5----7---7-7-7-----5---5-5-5----7---7-7-7-----|
D|-3---3-3-3----5---5-5-5-----^------------5---5-5-5-----|
  ^            ^                          ^

 Riff 3.a                                           (End Riff 3.a)
D|------------15-------------------------------------------------|
A|-17~-1717/19--19_15-19_b20r1915-17~-1717/192019_15-19_b20r1915-|
F|*-------sl------p----------------------sl------p--------------*|GTR 1
C|*-------------------------------------------------------------*|
G|---------------------------------------------------------------|
D|---------------------------------------------------------------|

D|---------------------------------------------------------------|
A|---------------------------------------------------------------|
F|*-------------------------------------------------------------*|GTR 2
C|*9---9-9-9----4---4-4-4-----9---9-9-9----4---4-4-4------------*|
G|-7---7-7-7----2---2-2-2-----7---7-7-7----2---2-2-2-------------|
D|-^------------^-------------^------------^---------------------|

 Fill 4                                           (End Fill 4)
D|-15171917151715--15----------------------------------------|
A|---------------19--1917----1719-1715-----------------------|
F|*-----------------------16-----------1614----1416---------*|GTR 1
C|*-----------------------------------------17------1414-14-*|
G|-----------------------------------------------------------|
D|-----------------------------------------------------------|
                                                    . .  .
|-----------------------------------------------------------|
|-----------------------------------------------------------|
|*---------------------------------------------------------*|GTR 2
|*---------7-------9------4--5------7------9---------------*|
|-5--------5-------7------2--3------5------7--------------2-|
|-3--------^-------^------^--^------^------^--------0--0--0-|
  ^                                                 .  .  ^

D|-----------------------------------------------|
A|-------------------------------------7777-10---|
F|*------------------------------------7777-10--*|GTR 1
C|*------------------------------------7777-10--*| 
G|-------------------------------------5555-8----|
D|-------------------------------------^^^^-^----|

D|-----------------------------------------------|
A|-----------------------------------------------|
F|*---------------------------------------------*|GTR 2
C|*------10--9-------7---9-------10--9-7777-7~--*|
G|-------8---7-------5---7-------8---7-5555-8~---|
D|-0-0-0-^-0-^-0-0-0-^-0-^-0-0-0-^-0-^------^----|
  . . .   .   . . .   .   . . .   .

D|-----------------------------------------------|
A|-------------------------------------7777-10---|
F|*------10--9-------7---9-------10--9-7777-10--*|GTR 1
C|*------10--9-------7---9-------10--9-7777-10--*| 
G|-------8---7-------5---7-------8---7-5555-8----|
D|-------^-0-^-------^-0-^-------^-0-^-^^^^-^----|
          .           .           .

D|-----------------------------------------------|
A|-----------------------------------------------|
F|*---------------------------------------------*|GTR 2
C|*------10--9-------7---9-------10--9-7777-7~--*|
G|-------8---7-------5---7-------8---7-5555-8~---|
D|-0-0-0-^-0-^-0-0-0-^-0-^-0-0-0-^-0-^------^----|
  . . .   .   . . .   .   . . .   .

2nd Verse

 Riff 4 (bridge)
D|-------------------------------------------------------------------------|
A|-------------------------------------------------------------------------|
F|*-----------------------------------------------------------------------*|GTRS
C|*---------5-----4--2--2--2--5--2--4-----------5-----4-----------5-----4-*| 1&2
G|-3--3--3--^--3--^-----------^-----^-----------^-----^--2--2--2--^--2--^--|
D|-------------------------------------3--3--3-----3-----------------------|
  .  .  .     .     .  .  .     .     .  .  .     .     .  .  .     .
 
 (w/Riff 4 2tx)
D|-------------12-15/19_15-------------------------7--10/14_10-------------|
A|----------13---------p---17-------------------8----------p---12----------|
F|*------12-------------------16-------------7--------------------11------*|GTR 3
C|*---14----------------------------------9-------------------------------*|
G|-15----------------------------------10----------------------------------|
D|-------------------------------------------------------------------------|

D|-------------12-15/19_15-------------------------------------------------|
A|----------13---------p---17----17-20-20_15----------15-19_15----------15-|
F|*------12-------------------16---------p---16----16------p---16----16---*|GTR 3
C|*---14----------------------------------------17----------------16------*|
G|-15----------------------------------------------------------------------|
D|-------------------------------------------------------------------------|

 Riff 5 (Rhythm over solo)
D|-------------------------------------------------------------------------|
A|-------------------------------------------------------------------------|
F|*-5--5--5--5--5--5--9--9--9--9--9--9-------------------4--4--4--4--4--4-*|GTRS
C|*-5--5--5--5--5--5--9--9--9--9--9--9-5--5--5--5--5--5--4--4--4--4--4--4-*| 1&2
G|--3--3--3--3--3--3--7--7--7--7--7--7-5--5--5--5--5--5--2--2--2--2--2--2--|
D|--^-----------------^----------------3--3--3--3--3--3--^-----------------|
                                      ^                 

 Guitar solo
D|---------12--------------------------------------------------------------|
A|-------12--1512----12-----121512-----12----12-----------16-----~---------|
F|*14_b16--------14_b16-14_b16--14_b16---14_b15-15-14-12------------------*|GTR 3
C|*-----------------------------------------------------------------------*|
G|-------------------------------------------------------------------------|
D|-------------------------------------------------------------------------|

D|-------------------------------------------------------------------------|
A|-------------------------------------------------------------------------|
F|*-5--5--5--5--5--5--9--9--9--9--9--9-------------------4--4--4--4--4--4-*|GTRS
C|*-5--5--5--5--5--5--9--9--9--9--9--9-5--5--5--5--5--5--4--4--4--4--4--4-*| 1&2
G|--3--3--3--3--3--3--7--7--7--7--7--7-5--5--5--5--5--5--2--2--2--2--2--2--|
D|--^-----------------^----------------3--3--3--3--3--3--^-----------------|
                                      ^                  

D|-15-14-12\11-12-14/15-14-12/19-17-15-/20-19-17---------------------------|
A|---------sl-------sl-------sl--------sl--------20-19-17-19~--------------|
F|*-----------------------------------------------------------------------*|GTR 3
C|*-----------------------------------------------------------------------*|
G|-------------------------------------------------------------------------|
D|-------------------------------------------------------------------------|

D|-------------------------------------------------------------------------|
A|-------------------------------------------------------------------------|
F|*-5--5--5--5--5--5--9--9--9--9--9--9-------------------4--4--4--4--4--4-*|GTRS
C|*-5--5--5--5--5--5--9--9--9--9--9--9-5--5--5--5--5--5--4--4--4--4--4--4-*| 1&2
G|--3--3--3--3--3--3--7--7--7--7--7--7-5--5--5--5--5--5--2--2--2--2--2--2--|
D|--^-----------------^----------------3--3--3--3--3--3--^-----------------|
                                      ^                 

D|----------19----------22-20-19-20----19-20-22-24-22-20-19-22----19-------|
A|-17-19-20----20-19-20-------------22-------------------------19-------19-|
F|*------------------------------------------------------------------19---*|GTR 3
C|*-----------------------------------------------------------------------*|
G|-------------------------------------------------------------------------|
D|-------------------------------------------------------------------------|

D|----------------------------------------------------------------------------|
A|----------------------------------------------------------------------------|
F|*-5--5--5--5--5--5--9--9--9--9--9--9---------------------------------------*|GTRS 
C|*-5--5--5--5--5--5--9--9--9--9--9--9-5--5--5--5--5--5----------------------*| 1&2
G|--3--3--3--3--3--3--7--7--7--7--7--7-5--5--5--5--5--5-----------------------|
D|--^-----------------^----------------3--3--3--3--3--3-----------------------|
                                      ^

D|-19-24----19----------------------------------19-15-------------------------|
A|-------20-------20----------------------17----------17----------------------|
F|*------------21----16-21----16-------16----16----------16-------14---------*|GTR 3
C|*------------------------17-------17----------------------17-14----17-16-14*|
G|-------------------------------19-------------------------------------------|
D|----------------------------------------------------------------------------|


Keyboard solo  

     
 Riff 6 (Rhythm over Keyboard solo)   1.2.3.                                4.
D|----------------------------------:------------------------------------:----|
A|----------------------------------:------------------------------------:----|
F|*---------------------------------:------------------------------------:-4-*|GTR 1
C|*-2--2--2--2--2--4-5--2--2--5-2-4-:----------5-----4-----------5-----4-:-2-*| 
G|----------------------------------:-------------------5--5--5-----5----:-^--|
D|----------------------------------:-3--3--3-----3----------------------:----|
   .  .  .  .  .       .  .    .     .  .  .     .     .  .  .     .

                                     1,3.
D|----------------------------------:-----------------------------------------|
A|----------------------------------:-----------------------------------------|
F|*---------------------------------:----------------------------------------*|GTR 2
C|*-2-2-2-2-2-2-2-2-2-2-2-2-2-2-2-2-:----------------------------------------*| 
G|----------------------------------:------------------5-5-5-5-5-5-5-5--------|
D|----------------------------------:-3-3-3-3-3-3-3-3-------------------------|
   . . . . . . . . . . . . . . . .   . . . . . . . .  . . . . . . . . 
 
                                      2.                                  4.
D|----------------------------------:------------------------------------:----|
A|----------------------------------:------------------------------------:----|
F|*---------------------------------:------------------------------------:---*|GTR 2
C|*-2-2-2-2-2-2-2-2-2-2-2-2-2-2-2-2-:------------------------------------:-2-*| 
G|----------------------------------:-5-5-5-5-5-5-5-5--------------------:-2--|
D|----------------------------------:------------------3-3-3-3-3-3-3-3---:-0--|
   . . . . . . . . . . . . . . . .   . . . . . . . .  . . . . . . . .     ^
            
Repeat Chorus
Fill 4 2tx
End.

*************************************************************************
.  - palm mute                  /  - slide up to
\  - slide down to              ~  - vibrato             
h  - hammer on                  b  - bend 
p  - pull off                   Suffixes for bend    
ph - pinch harmonic             f - full bend    h - half bend
*  - see comment                r - release      t - tap bend
X  - percussion mute            ~ - vibrato bend
@  - slight palm mute           () - ghost note, sustained note
*************************************************************************
Suggest correction
comments
print report bad tab
7 comments total. Showing first comments.
0 reply
pill2comawhite 240 Jan 18, 2004 12:00 AM

this tab is all over the internet, plus its wrong, bad tab

0 reply
pill2comawhite 240 Jan 18, 2004 12:00 AM

this tab is all over the internet, plus its wrong, bad tab

0 reply
sodergren 10 Oct 23, 2004 12:00 AM

you can say that again. ha ha. What's wrong with it?

guest
You may want to rate the tab now too:
select rating
Wanna post a correction for this tab? Suggest correction