Oops, an error
Loading. Please wait.

Bed Of Razors Tab

version 2
version 2
76,996 views 87 this week
23 commentsread comments
1 2 3 4 5
x 45
add to favorites
launch autoscroll
font size
0
reset
how to read this tab
guitar tuner
Autoscroll
slow
fast
+/-
esc
set tempo
stop
Help us to improve Ultimate-Guitar.com Take our survey!
×
Tune down one whole step
4/4 time, 150 bpm

(Keyboards)

e|-------------------------------|-----------------10-8--------------|
B|-12-8---------8-11-8---------8-|-12-8----8-10-12------12-10-8------|
G|------11-9-11--------11-9-11---|------11----------------------11---|
D|-------------------------------|-----------------------------------|
A|-------------------------------|-----------------------------------|
E|-------------------------------|-----------------------------------|
 |
e|-------------------------------|---------------------------------|
B|-------------------------------|---------------------------------|
G|-------------------------------|-----------------5-------7-------|
D|-2--------------3--------------|-2---------------5-------7-------|
A|-2--------------3--------------|-2---------------3-------5-------|
E|-0--------------1--------------|-0-------------------------------|


e|-------------------------------|-----------------10-8------------|
B|-12-8---------8-11-8---------8-|-12-8----8-10-12------12-10-8----|
G|------11-9-11--------11-9-11---|------11----------------------11-|
D|-------------------------------|---------------------------------|
A|-------------------------------|---------------------------------|
E|-------------------------------|---------------------------------|
 |
e|-------------------------------|---------------------------------|
B|-------------------------------|---------------------------------|
G|----------------3--------------|-----------------5-------7-------|
D|-2--------------3-------3-3-3--|-2---------------5-------7-------|
A|-2-------2-2-2--1-------1-1-1--|-2-------2-2-2---3-------5-------|
E|-0-------0-0-0-----------------|-0-------0-0-0-------------------|

   dive w/bar                       raise w/bar
e|----------|----------|----------|----------|
B|----------|----------|----------|----------|
G|-0-\------|-\--------|-\--------|-a2.3/----|
D|----------|----------|----------|----------|
A|----------|----------|----------|----------|
E|----------|----------|----------|----------|
 |
e|----------|----------|----------|----------|
B|----------|----------|----------|----------|
G|----------|----------|----------|----------|
D|-2--------|----------|----------|----------|
A|-2--------|----------|----------|----------|
E|-0--------|----------|----------|----------|

                                    1.2.3.
e|--------------------------------|-----------------10-8-------------|
B|--12-8---------8-11-8---------8-|-12-8----8-10-12------12-10-8-----|
G|*------11-9-11--------11-9-11---|------11----------------------11-*|
D|*-------------------------------|---------------------------------*|
A|--------------------------------|----------------------------------|
E|--------------------------------|----------------------------------|
 |
e|--------------------------------|----------------------------------|
B|--------------------------------|----------------------------------|
G|*-------------------------------|---------------------------------*|
D|*-9--------------10-------------|-9---------------5-------7-------*|
A|--7--------------8--------------|-7---------------3-------5--------|
E|--------------------------------|----------------------------------|

   4.
e|-15-------------14s13-------------12-|----------------------------------|
B|----14-------13-------12-------11----|----------------------------------|
G|-------15----------------13----------|-------------12-14-15~------------|
D|----------16----------------14-------|----------12----------------------|
A|-------------------------------------|-10-12-13-------------------------|
E|-------------------------------------|----------------------------------|
 |
e|-12-------------11s10-------------9--|----------------------------------|
B|----11-------10-------9---------8----|----------------------------------|
G|-------12----------------10----------|--------------9-10-12~------------|
D|----------13----------------11-------|-----------9----------------------|
A|-------------------------------------|-7--9--10-------------------------|
E|-------------------------------------|----------------------------------|

[Verse]

e|-------------------------|-------------------------|
B|-------------------------|-------------------------|
G|-------------------------|---------------2---------|
D|-------------------------|---------------0---------|
A|-------------------------|---------------0---------|
E|-0-0-0-0-0-0-0-0-0-0-0-0-|-0-0-0-0-0-0-0-----------|
 |
e|-------------------------|-------------------------|
B|-------------------------|-------------------------|
G|-------------------------|-------------------------|
D|-------10--9-------7---9-|-------10--9---7-7-7-7-7-|
A|-------8---7-------5---7-|-------8---7---5-5-5-5-8-|
E|-0-0-0---0---0-0-0---0---|-0-0-0---0---0-----------|


e|-------------------------|-------------------------|
B|-------------------------|-------------------------|
G|-------------------------|-------------------------|
D|-------------------------|-------------------------|
A|-------------------------|-------------0-2-3-2-----|
E|-0-0-0-0-0-0-0-0-0-0-0-0-|-0-0-0-0-0-0-------------|
 |
e|-------------------------|-------------------------|
B|-------------------------|-------------------------|
G|-------------------------|-------------------------|
D|-------10--9-------7---9-|-------10--9-------------|
A|-------8---7-------5---7-|-------8---7-5-7-8-5-----|
E|-0-0-0---0---0-0-0---0---|-0-0-0---0---------------|


e|-------------------------|-------------------------|
B|-------------------------|-------------------------|
G|-------------------------|-------------------------|
D|-------------------------|-------------------------|
A|-3-3-3-3-3-3-3-3-3-3-3-3-|-------------2-2-2-2-2-2-|
E|-------------------------|-2-2-2-2-2-2-------------|
 |
e|-8-----7-----------------|-------------------------|
B|-------------10----8-----|-7h8p7-------------------|
G|-------------------------|--------9----8-----11----|
D|-------------------------|-------------------------|
A|-------------------------|-------------------------|
E|-------------------------|-------------------------|


e|-------------------------|-------------------------|
B|-------------------------|-------------------------|
G|-------------------------|---------------2---------|
D|-------3---2-------0---2-|-------3---2---0---------|
A|-------3---2-------0---2-|-------3---2---0---------|
E|-0-0-0---0---0-0-0---0---|-0-0-0---0---0-----------|
 |
e|-------------------------|-------------------------|
B|-------------------------|-------------------------|
G|-------------------------|-------------------------|
D|-------10--9-------7---9-|-------10--9---7-7-7-7-7-|
A|-------8---7-------5---7-|-------8---7---5-5-5-5-8-|
E|-0-0-0---0---0-0-0---0---|-0-0-0---0---0-----------|


e|-------------------------|-------------------------|
B|-------------------------|-------------------------|
G|-------------------------|-------------------------|
D|-------3---2-------0---2-|-------3---2-2-----------|
A|-------3---2-------0---2-|-------3---2-3---2-2-----|
E|-0-0-0---0---0-0-0---0---|-0-0-0---0---------0-----|
 |
e|-------------------------|-------------------------|
B|-------------------------|-------------------------|
G|-------------------------|-------------9---7-9-----|
D|-------10--9-------7---9-|-------10--9-------------|
A|-------8---7-------5---7-|-------8---7-7---5-7-----|
E|-0-0-0---0---0-0-0---0---|-0-0-0---0---------------|

                                    1.2.3.
e|--------------------------------|-----------------10-8-------------|
B|--12-8---------8-11-8---------8-|-12-8----8-10-12------12-10-8-----|
G|*------11-9-11--------11-9-11---|------11----------------------11-*|
D|*-------------------------------|---------------------------------*|
A|--------------------------------|----------------------------------|
E|--------------------------------|----------------------------------|
 |
e|--------------------------------|----------------------------------|
B|--------------------------------|----------------------------------|
G|*-------------------------------|---------------------------------*|
D|*-9--------------10-------------|-9---------------5-------7-------*|
A|--7--------------8--------------|-7---------------3-------5--------|
E|--------------------------------|----------------------------------|


e|----------------12-14b(15)--14~--------|
B|-12-13-15-13-15------------------------|
G|---------------------------------------|
D|---------------------------------------|
A|---------------------------------------|
E|---------------------------------------|
 |
e|---------------------------------------|
B|-------12----12-13-15b(17)--15~--------|
G|-12-14----14---------------------------|
D|---------------------------------------|
A|---------------------------------------|
E|---------------------------------------|

 [Chorus]
e|-------------------------|-------------------------|
B|-------------------------|-------------------------|
G|-------------------------|-------------------------|
D|-9---9-9-9---4---4-4-4---|-9---9-9-9---4---4-4-4---|
A|-7---7-7-7---2---2-2-2---|-7---7-7-7---2---2-2-2---|
E|-------------------------|-------------------------|
 |
e|-------------------------|-------------------------|
B|-------------------------|-------------------------|
G|-------------------------|-------------------------|
D|-9---9-9-9---4---4-4-4---|-9---9-9-9---4---4-4-4---|
A|-7---7-7-7---2---2-2-2---|-7---7-7-7---2---2-2-2---|
E|-------------------------|-------------------------|


e|-------------------------|-------------------------|
B|-------------------------|-------------------------|
G|-------------------------|-------------------------|
D|-5---5-5-5---4---4-4-4---|-5---5-9-7-5-4-----------|
A|-3---3-3-3---5---5-5-5---|-------------5-----------|
E|-------------------------|-------------------------|
 |
e|-------------------------|-------------------------|
B|-------------------------|-------------------------|
G|-------------------------|-------------------------|
D|-5---5-5-5---7---7-7-7---|-------------7---7-7-7---|
A|-3---3-3-3---5---5-5-5---|-5---5-5-5---5---5-5-5---|
E|-------------------------|-3---3-3-3---------------|


e|----------------------------|----------------------------|
B|----------------------------|----------------------------|
G|-9---9-9-11-12-11\7-7---7-7-|-9---9-9-11-12-11\7-7---7-7-|
D|----------------------------|----------------------------|
A|----------------------------|----------------------------|
E|----------------------------|----------------------------|
 |
e|----------------------------|----------------------------|
B|----------------------------|----------------------------|
G|----------------------------|----------------------------|
D|-9---9-9--9----4----4-4-4---|-9---9-9--9----4----4-4-4---|
A|-7---7-7--7----2----2-2-2---|-7---7-7--7----2----2-2-2---|
E|----------------------------|----------------------------|


e|--------------------------------|---------------------------------|
B|-----------------------------10-|-12---12-12-10-------------------|
G|-9---9-9-11-12-11---11-11-12----|---------------12-11-------------|
D|--------------------------------|---------------------------------|
A|--------------------------------|---------------------------------|
E|--------------------------------|---------------------------------|
 |
e|--------------------------------|---------------------------------|
B|--------------------------------|---------------------------------|
G|--------------------------------|---------------------------------|
D|-5---5-5-5-----7----7--7--7-----|------------------7----7--7-7----|
A|-3---3-3-3-----5----5--5--5-----|-5----5--5--5-----5----5--5-5----|
E|--------------------------------|-3----3--3--3--------------------|


e|-------------------------|-------------------------|
B|-------------------------|-------------------------|
G|-------------------------|-------------------------|
D|-9---9-9-9---4---4-4-4---|-9---9-9-9---4---4-4-4---|
A|-7---7-7-7---2---2-2-2---|-7---7-7-7---2---2-2-2---|
E|-------------------------|-------------------------|
 |
e|-------------------------|-------------------------|
B|-------------------------|-------------------------|
G|-------------------------|-------------------------|
D|-9---9-9-9---4---4-4-4---|-9---9-9-9---4---4-4-4---|
A|-7---7-7-7---2---2-2-2---|-7---7-7-7---2---2-2-2---|
E|-------------------------|-------------------------|


e|-------------------------|-------------------------|
B|-------------------------|-------------------------|
G|-------------------------|-------------------------|
D|-------------------------|-------------7-5-4-------|
A|-5---5-5-5---7---7-7-7---|-5---5-9-7-5-------7-5-4-|
E|-3---3-3-3---5---5-5-5---|-------------------------|
 |
e|-------------------------|-------------------------|
B|-------------------------|-------------------------|
G|-------------------------|-------------------------|
D|-------------------------|-7---7-7-7---------------|
A|-5---5-5-5---7---7-7-7---|-5---5-5-5---7---7-7-7---|
E|-3---3-3-3---5---5-5-5---|-------------5---5-5-5---|


e|----------------------------|----------------------------|
B|----------------------------|----------------------------|
G|-9---9-9-11-12-11\7-7---7-7-|-9---9-9-11-12-11\7-7---7-7-|
D|----------------------------|----------------------------|
A|----------------------------|----------------------------|
E|----------------------------|----------------------------|
 |
e|----------------------------|----------------------------|
B|----------------------------|----------------------------|
G|----------------------------|----------------------------|
D|-9---9-9--9----4----4-4-4---|-9---9-9--9----4----4-4-4---|
A|-7---7-7--7----2----2-2-2---|-7---7-7--7----2----2-2-2---|
E|----------------------------|----------------------------|


e|--------------------------------|------------------------------|
B|--------------------------------|------------------------------|
G|-----------------------------9--|-11---11-11-9-----------------|
D|-9---9-9-11-12-11---11-11-12----|---------------12-11----------|
A|--------------------------------|------------------------------|
E|--------------------------------|------------------------------|
 |
e|--------------------------------|------------------------------|
B|--------------------------------|------------------------------|
G|--------------------------------|------------------------------|
D|--------------------------------|-7----7--7--7-----------------|
A|-5---5-5-5-----7----7--7--7-----|-5----5--5--5--7----7--7-7----|
E|-3---3-3-3-----5----5--5--5-----|---------------5----5--5-5----|


e|----------------------------|--------------------------------|
B|----------------------------|-----------------------------10-|
G|-9---9-9-11-12-11\7-7---7-7-|-9---9-9-11-12-11---11-11-12----|
D|----------------------------|--------------------------------|
A|----------------------------|--------------------------------|
E|----------------------------|--------------------------------|
 |
e|----------------------------|--------------------------------|
B|----------------------------|--------------------------------|
G|----------------------------|--------------------------------|
D|-9---9-9--9----4----4-4-4---|-9---9-9--9----4----4--4--4-----|
A|-7---7-7--7----2----2-2-2---|-7---7-7--7----2----2--2--2-----|
E|----------------------------|--------------------------------|


e|--------------------------------12-|-14---14-17-15-14---------------|
B|-12---12-12-14-15-14---14-14-15----|------------------17------------|
G|-----------------------------------|--------------------------------|
D|-----------------------------------|--------------------------------|
A|-----------------------------------|--------------------------------|
E|-----------------------------------|--------------------------------|
 |
e|-----------------------------------|--------------------------------|
B|-----------------------------------|--------------------------------|
G|-----------------------------------|--------------------------------|
D|-----------------------------------|-7-----7--7--7------------------|
A|-5----5--5--5-----7-----7--7--7----|-5-----5--5--5-----7----7-7-7---|
E|-3----3--3--3-----5-----5--5--5----|-------------------5----5-5-5---|


e|----------------15-------------------|----------------15-------------15-17-|
B|-17----17-17-19----19~--\15----15-15-|-17----17-17-19----19~--\15----------|
G|-------------------------------------|-------------------------------------|
D|-------------------------------------|-------------------------------------|
A|-------------------------------------|-------------------------------------|
E|-------------------------------------|-------------------------------------|
 |
e|-------------------------------------|-------------------------------------|
B|-------------------------------------|-------------------------------------|
G|-------------------------------------|-------------------------------------|
D|-9-----9--9--9-----4-----4--4--4-----|-9-----9--9--9-----4-----4--4--4-----|
A|-7-----7--7--7-----2-----2--2--2-----|-7-----7--7--7-----2-----2--2--2-----|
E|-------------------------------------|-------------------------------------|


e|-19-17-15-17-15----15----------------|-------------------------------------|
B|----------------19----19-17----17-19-|-17-15-------------------------------|
G|----------------------------16-------|-------16-14----14-16----------------|
D|-------------------------------------|-------------17-------14-14-14-------|
A|-------------------------------------|-------------------------------------|
E|-------------------------------------|-------------------------------------|
 |
e|-------------------------------------|-------------------------------------|
B|-------------------------------------|-------------------------------------|
G|-------------------------------------|-------------------------------------|
D|-----------7-------9--------4--------|-5--------7--------9-----------------|
A|-5---------5-------7--------2--------|-3--------5--------7--------2--------|
E|-3--------(2)------------------------|----------------------0--0--0--------|

[Verse 2]

 [Bridge]
 Riff A
e|-------------------------------------|-------------------------------------|
B|-------------------------------------|-------------------------------------|
G|*------------------------------------|------------------------------------*|
D|*---------5-----4--2--2--2--5--2--4--|----------5-----4-----------5-----4-*|
A|-3--3--3-----3-----------------------|-------------------2--2--2-----2-----|
E|-------------------------------------|-3--3--3-----3-----------------------|

 w/Riff A (twice)
e|-------------12-15/19p15-------------|-------------7--10/14p10-------------|
B|----------13-------------17----------|----------8--------------12----------|
G|-------12-------------------16-------|-------7--------------------11-------|
D|----14-------------------------------|----9--------------------------------|
A|-15----------------------------------|-10----------------------------------|
E|-------------------------------------|-------------------------------------|


e|-------------12-15/19p15-------------|-------------------------------------|
B|----------13-------------17----17-20-|-20p15----------15-19p15----------15-|
G|-------12-------------------16-------|-------16----16----------16----16----|
D|----14-------------------------------|----------17----------------16-------|
A|-15----------------------------------|-------------------------------------|
E|-------------------------------------|-------------------------------------|

[Guitar Solo]

       C5                E5                      G5                 B5
e|---|-------12--------------------------------|---------------------------------|
B|---|----12----15-12----12------12-15-12------|-12----12-----------16-----v-----|
G|-14|b(16)----------14b(16)-14b(16)----14b(16)|---14b(15)-15-14-12--------------|
D|---|-----------------------------------------|---------------------------------|
A|---|-----------------------------------------|---------------------------------|
E|---|-----------------------------------------|---------------------------------|

   C5                E5                  G5                B5
e|-15-14-12\11-12-14/15-14-12/19-17-15-|/20-19-17----------------------------|
B|-------------------------------------|----------20-19-17-19~---------------|
G|-------------------------------------|-------------------------------------|
D|-------------------------------------|-------------------------------------|
A|-------------------------------------|-------------------------------------|
E|-------------------------------------|-------------------------------------|

   C5                E5                  G5                B5
e|----------19----------22-20-19-20----|-19-20-22-24-22-20-19-22----19-------|
B|-17-19-20----20-19-20-------------22-|-------------------------19-------19-|
G|-------------------------------------|-------------------------------19----|
D|-------------------------------------|-------------------------------------|
A|-------------------------------------|-------------------------------------|
E|-------------------------------------|-------------------------------------|

   C5                E5                  G5
e|-19-24----19-------------------------|----------19-15------------------------|
B|-------20-------20-------------------|----17----------17---------------------|
G|-------------21----16-21----16-------|-16----16----------16-------14---------|
D|-------------------------17-------17-|----------------------17-14----17-16-14|
A|-------------------------------19----|---------------------------------------|
E|-------------------------------------|---------------------------------------|

 Keyboard solo                1.2.3.                       4.
e|--------------------------|--------------------------|  -----------|
B|--------------------------|--------------------------|  -----------|
G|*-------------------------|-------------------------*|  -4---------|
D|*-2-2-2-2-2-4-5-2-2-5-2-4-|-------5---4-------5---4-*|  -2---------|
A|--------------------------|-------------5-5-5---5----|  -----------|
E|--------------------------|-3-3-3---3----------------|  -----------|


Repeat Chorus
Repeat the two last bars of the chorus



************************************

| /    Slide up
| \    Slide down
| *    Natural harmonic
| ~    Vibrato
| h    Hammer-on
| p    Pull-off
| (n)  Ghost note
| b    bend   
| s    slide

************************************
Suggest correction
comments
print report bad tab
23 comments total. Showing first comments.
0 reply
Argon 30 Jan 17, 2006 01:06 PM

Very nice.Good job!

+3 reply
SomeKindOfKirk 55 Feb 01, 2006 02:29 PM

Kickass Tab:)

+1 reply
whalepudding 91 Mar 04, 2006 06:56 PM

yay for accurate tabs! :D

guest
You may want to rate the tab now too:
select rating
Wanna post a correction for this tab? Suggest correction