Oops, an error
Loading. Please wait.

Better Off Dead Tab

538 views 1 this week
no commentswrite comment
1 2 3 4 5
please rate
add to favorites
launch autoscroll
font size
0
reset
how to read this tab
guitar tuner
Autoscroll
slow
fast
+/-
esc
set tempo
stop
Help us to improve Ultimate-Guitar.com Take our survey!
×
Difficulty
Tuning
advanced
C G C G C E
 i am pritty sure this is 100% right. start of slow then work your way up to a faster pase.     


Palm mute= .  
Dead note= x                                                       

Repeat 2x
|--------------------------------------------------------------------------|
|--------------------------------------------------------------------------|
|--------------------------------------------------------------------------|
|-9-9-x-7-7-x-9-9-x-------5----5-4-----9-9-------4-4-----5-5-----7-7-------|
|-7-7-x-5-5-x-7-7-x-------3--3-----7-7------2-2------3-3-----5-5-5-5-------|
|--------------------------------------------------------------------------|
                                   . .      . .      . .     . . 

|--------------------------------------------------------------------------|
|--------------------------------------------------------------------------|
|--------------------------------------------------------------------------|
|--6-6-x-4-4-x-6-6-x-2------2-1-----6-6------------------------------------|
|--4-4-x-2-2-x-4-4-x-0----0-----4-4-----------6-6-----7-7-----9-9----------|
|-----------------------------------------6-6-----7-7-----9-9--------------|
                                 . .      . .     . .     . . 
Suggest correction
Give kudos to tab author, rate the tab!
1 2 3 4 5
comments
print report bad tab
guest
You may want to rate the tab now too:
select rating
Wanna post a correction for this tab? Suggest correction