Oops, an error
Loading. Please wait.

Black Widow Bass Tab

version 1
version 1

Whole song

Interactive

1,350 views 3 this week
1 commentread comment
1 2 3 4 5
please rate
add to favorites
launch autoscroll
font size
0
reset
guitar tuner
Tab Pro tools
  • play this tab
  • loop segment
  • change instrument
  • show fretboard
  • metronome
×
Best way to learn
"Black Widow"
Autoscroll
slow
fast
+/-
esc
set tempo
stop
Contributor
Tune down one whole step :  D G C F


Riff 1


|------------------|----------------|----------------|---------------------|
|------------------|----------------|----------------|---------------------|
|-{Keyboard/Guitar Intro}-----------|-------------7--|-9-10-9--10-12-------|
|------------------|----------------|----------------|---------------0-(0)-|


||-------------------|--------9-8------|------------------|-----------------------|
||*------------------|-----------10----|------------------|-----------------------|
||*---7-------7------|---7----------7--|-------7-------7--|-----------10/9-/10----|
||--0---0-0-0---0-0--|-0---0-----------|-0-0-0---0-0-0----|-0-0-0-0-0----------0--|

                                                     1.
|------------------|-------9-8-------|---------------|--------------------||
|------------------|-----------10----|---------------|-------------------*||
|---7-------7------|---7----------7--|-------7-----7-|-9-10-9-10-12------*||
|-0---0-0-0---0-0--|-0---0-----------|-0-0-0---0-0---|--------------0-(0)-||

2.
|------------------|------------|
|------------------|------------|
|-9-10-9-10-12-----|------------|
|---------------0--|------------|

   (x4)
||---------------|--------------|--------------|---------------------||
||*--------------|--------------|--------------|-----------9--------*||
||*---------7-8--|---------7-5--|---------7-8--|-7-10-9-7----7-9-10-*||
||--000--0-------|-000--0-------|-000--0-------|---------------------||


Riff 2


||-------------|---------------|-----------------|-----------------|-------------------||
||*------------|---------------|-----------------|-----------------|------------------*||
||*--7---------|-8-------------|-7-------2-------|-3-------0-------|-2--------6-------*||
||-------------|---------------|-----------------|-----------------|-------------------||

end Riff 2|


|-------------------|-----------------------|--------------|--------------|
|-------------------|-----------------------|--------------|--------------|
|-7--------2--------|-7----5----3-----2-----|--------------|--------------|
|-------------------|-----------------------|0-------------|--------------|


|--------------|--------------------|--------------|--------------|
|--------------|-----------9--------|--------------|--------------|
|--------------|-7-10-9-7----7-9-10-|---------7-8--|---------7-5--|
|--------------|--------------------|--------------|--------------|


|--------------|--------------------||---------------|--------------|
|--------------|-----------9--------||*--------------|--------------|
|---------7-8--|-7-10-9-7---7-9-10--||*---------7-8--|---------7-5--|
|--------------|--------------------||--0-0-0-0------|-0-0-0-0------|


|--------------|---------------------------|||---------------|--------------|
|--------------|-----------9--------------*|||*--------------|--------------|
|---------7-8--|-7-10-9-7----7-7-9-9-10-10*|||*---------7-8--|---------7-5--|
|-0-0-0-0------|---------------------------|||--000--0-------|-000--0-------|



|--------------|---------------------|||---------------|--------------|
|--------------|-----------9--------*|||*--------------|--------------|
|---------7-8--|-7-10-9-7----7-9-10-*|||*-----------5--|--------------|
|-000--0-------|---------------------|||--2-2-2-2-2----|-2-2-2-2-2-5--|


|--------------|----------------|--------------|--------------|--------------|
|--------------|----------------|--------------|--------------|--------------|
|--------------|----------------|-----------5--|--------------|--------------|
|-5-5-5-5-5-4--|-4-4-4-5---4----|-2-2-2-2-2----|-2-2-2-2-2-5--|-5-5-5-5-5-4--|



Riff 3


|----------------||------------|----------------|------------|-----------------------------|
|---------------*||------------|----------------|------------|-----------------------------|
|-------5---7---*||-3-3-5-5-7--|-7-7-7-7-7-7-7--|-3-3--------|-----------------------------|
|-4-4-4----------||------------|----------------|-----0-0-2--|-2-2-2-2-2-2-2-2-2-2-2-2-2-2-|


end Riff 3


|-------------|----------------|------------------|---------|
|-------------|----------------|------------------|---------|
|-3-3-------2-|-2-2-2-2-2-2-2--|--------3------2--|-2-------|
|------0--2---|----------------|-0----------------|---------|


Play Riff 2


|----------------------|------------------------|--------|--------|-------|--------|
|----------------------|------------------------|-4----4-|-4----4-|4----4-|4-------|
|-7----5----3-----2----|-9----7-----5-----4-----|--------|--------|-------|--------|
|----------------------|------------------------|--------|--------|-------|--------|


                                       x4
   x3
||------------------|------------------|||------------------|------------------||
||*4-2-4-5-4-2------|---------------2-*|||*4-2-4-5-4-2------|---------------2-*||
||*------------5-4--|-2-2-2-2-2-4-5---*|||*------------5-4--|-2-2-2-2-2-4-5---*||
||------------------|------------------|||------------------|------------------||



|-----------------------|------|--------|-------------------|-------||-----------------|
|-4---------------------|------|--------|-------------------|-------||*-------------3--|
|-----------------------|-8----|-5------|-7-----------------|-------||*-0-0-0-0-0-0----|
|-----------------------|------|--------|-------------------|-0-----||-----------------|


|--------------|--------------|-------------|----------------|--------------|
|--------------|--------------|-------------|-------------3--|--------------|
|-0-0-0-0-0-3--|-3-3-3-3-3-2--|-2-2-2--3-2--|-0-0-0-0-0-0----|-0-0-0-0-0-3--|
|--------------|--------------|-------------|----------------|--------------|


|--------------|-------------||
|--------------|--------3-5-*||
|-3-3-3-3-3-2--|-2-2-2------*||
|--------------|-------------||


play riff 3



Riff 4                                  1.


||-------------------|---------9-8------|----------------|----------------------||
||*------------------|--------------10--|----------------|---------------------*||
||*-----7-------7----|-----7----------7-|-------7-----7--|--------------109-10-*||
||--0-0---0-0-0---0--|-0-0---0----------|-0-0-0---0-0----|-0-0-0-0-0-0----------||


2. end Riff 4


|----------------|------------|----|--|----|--|----|--|----|--|----|
|----------------|------------|----|--|----|--|----|--|----|--|----|
|-------7-----7--|-9-109-1012-|----|--|-3--|--|----|--|-5--|--|----|
|-0-0-0---0-0----|------------|-0--|--|----|--|-0--|--|----|--|-0--|


|--|--|------|
|--|--|------|
|--|--|---7-|
|--|--|-7----|
comments
We did not receive enough feedback on this tab! Please rate:
print report bad tab
1 2 3 4 5
1 comment total.
0 reply
EricJo wrote on April 20 2010, 09:53 am

good tab, but henkka plays a 5 string bass tuned down 1 step (ADGCF)

I want to post or [tab]
guest
You may want to rate the tab now too:
select rating
Please do not post tabs as comments. Select "correction" instead!