Oops, an error
Loading. Please wait.

Blooddrunk Tab

version 1
version 1

Solo

Whole song

8,375 views 1 this week
1 commentread comment
1 2 3 4 5
1 last vote to show rating
add to favorites
launch autoscroll
font size
0
reset
how to read this tab
guitar tuner
Autoscroll
slow
fast
+/-
esc
set tempo
stop
Help us to improve Ultimate-Guitar.com Take our survey!
×
Author
Difficulty
Tuning
intermediate
C G C F A D
Blooddrunk Solo
Children Of Bodom

Tabbed by: Seth "Shadows" Sanders.

Holy Fuck! New bodom album! 
I heard this song and Just had to tab the solo!.
This is pretty easy, as its done on mostly one part of the fretboard.
Rock on! :]


                 Tremolo Bar Dive
                  This harmonic            Dive        Dive
D|------------------------------------------------------------------|
A|--------------------------------------------------10--------------|
F|-------x------------<7>--------------9------0\----12b(14)--12\----|
C|-----x---11-----!----Tremolo-Pick----12b(14)--\---------------\---|
G|---x-----14b(16)!-----This harmonic------------\---------------\--|
C|-x----------------------------------------------\---------------\-|
   ^ Rake


                  1/4 step bend        PM PM
-----------------------/19~b----19\17--16--0--|
-------------/19------------------------------|
--/16~~(16)\------18\-------------------------|
----------------------------------------------|
----------------------------------------------|
----------------------------------------------|

--/21-19h-21p-19-17-----19s--17--19-17h-19p-17--------17\15--|
--------------------17----------------------------17---------|
-----------------------------------------------19------------|
-------------------------------------------------------------|
-------------------------------------------------------------|
-------------------------------------------------------------|
   
-------------/15-----------------|
--17b(19)~~~\-----17--14--17\----|Hold,
---------------------------------|       Get Readyyyyyyyyyyy.
---------------------------------|
---------------------------------|
---------------------------------|

Scale! :]
--------------------------------------21----19h21-22-19-21-22h24--21h22/24-|
-----------19-------19-21h22-19h21-22----22--------------------------------|
-/18h20-21----20h21--------------------------------------------------------|
---------------------------------------------------------------------------|
---------------------------------------------------------------------------|
---------------------------------------------------------------------------|

  Harmonic?   release bend
-[20]b[24]---24rb------x-x-21---------/19--|
-------------------------------22----------|
-----------------------------------21\-----|
-------------------------------------------|
-------------------------------------------|
-------------------------------------------|
                            ^All In one upstroke


Harmony:
I didnt figure out the second part yet. but it sounds like basic 3rd harmonies.

--21------22-----/24--21--19------21------22--19--|
------22------22--------------21------21----------|
--------------------------------------------------|
--------------------------------------------------|
--------------------------------------------------|
--------------------------------------------------|

----------19------21---------------------------------------------|
--22--19------19------22--19------21------22--19p17-x-17-x-x-17\-|
------------------------------19------19-------------------------|
-----------------------------------------------------------------|
-----------------------------------------------------------------|
-----------------------------------------------------------------|

That's it for the Solo!
Suggest correction
Give kudos to tab author, rate the tab!
1 2 3 4 5
comments
print report bad tab
1 comment total.
0 reply
zjmellet 43 Apr 28, 2008 08:17 PM

you should post the acual song. its awesome!

GOOD TAB!

guest
You may want to rate the tab now too:
select rating
Wanna post a correction for this tab? Suggest correction