Oops, an error
Loading. Please wait.

Children Of Bodom Bass Tab

version 1
version 1

Whole song

Interactive

4,264 views 1 this week
no commentswrite comment
1 2 3 4 5
1 last vote to show rating
add to favorites
launch autoscroll
font size
0
reset
guitar tuner
Autoscroll
slow
fast
+/-
esc
set tempo
stop
Help us to improve Ultimate-Guitar.com Take our survey!
×
Author
-----------------------------------------------------------------
Children of bodom - Children of Bodom
-----------------------------------------------------------------

Tabbed By : Sk8ass
e-mail: devilmax30@hotmail.com

Tuning: d g c f


intro

F|---------------------------------------------------------------|
C|---------------------------------------------------------------|
G|---------------------------------------------------------------|
D|--10--12--------12--8--7-----7-6-5--------8---------10-----12--|



fig1 X2

F|---------------------------------------------------------------|
C|---------------------------------------------------------------|
G|---------------------------------------------------------------|
D|--12-12-12-12-12-12-12-12------7-7-7-7-7-7-7-7-7-7-7-7---------|

F|---------------------------------------------------------------|
C|---------------------------------------------------------------|
G|---------------------------------------------------------------|
D|--5-5-5-5-5-5-5-5-5-----8---10---12----------------------------|


fig 2  X2
F|---------------------------------------------------------------|
C|---------------------------------------------------------------|
G|---------------------------------------------------------------|
D|-0-0-0-0-0-0-0-0-7-7-7-7-7-7-7-7-5-5-5-5-5-5-5--8-10-12-[8--10]|

fig 3   [1:00] X2

F|---------------------------------------------------------------|
C|---------------------------------------------------------------|
G|---------------------------------------------------------------|
D|-0-0-0-0-0-0-0-0-7-7-7-7-7-7-7-7--5-5-5-5-5-5-5--8-10-12-------|

prefig 4

F|---------------------------------------------------------------|
C|---------------------------------------------------------------|
G|--------------------------10-----------------------------------|
D|--8------8-10-12-10-10--8----8-------8-10-12-10-8--------------|

Fig 4

F|---------------------------------------------------------------|
C|---------------------------------------------------------------|
G|---------------------------------------------------------------|
D|-12-10-12--8-3-10-7---14-12-14---10-5-12-14-14-12-14-10-5-12-14|


fig 5  (follow the rythmn)
F|---------------------------------------------------------------|
C|---------------------------------------------------------------|
G|---------------------------------------------------------------|
D|--00-00-00-0000-00-00-0000000-00-00-0000000-000-000---/8-3-10-7|

fig 6 X2

F|---------------------------------------------------------------|
C|---------------------------------------------------------------|
G|---------------------------------------------------------------|
D|-12-15-10-12-12-15-10-12-12-15-10-12-12-15-10-------[10]-------|

FIG 1 X2

Fig 2 X2

Fig 4



fig7  (follow the rythmn)

F|---------------------------------------------------------------|
C|---------------------------------------------------------------|
G|---------------------------------------------------------------|
D|-000000-0000-0000-0000-000-0000-00000-000000-0000-00000-12-15--|


(solo)


F|---------------------------------------------------------------|
C|---------------------------------------------------------------|
G|---------------------------------------------------------------|
D|12-15-14--12-14-15-17--12-15-14--15-14-12-10-12-14-15-17-19-10-12|

Fig 8 X2 

F|---------------------------------------------------------------|
C|---------------------------------------------------------------|
G|---------------------------------------------------------------|
D|-0-12-0-12-15-19--0-12-15-14-12-10-12-14-15-17-19-10-12--------|

Fig 6 X4


Ending

F|---------------------------------------------------------------|
C|---------------------------------------------------------------|
G|---------------------------------------------------------------|
D|-0000-0000-0000-0000-0000-/12\---12-10-15-10--000-12-000-12----|






| / slide up
| \ slide down
| h hammer-on
| p pull-off
| ~ vibrato
| + harmonic
| x Mute note
Suggest correction
Give kudos to tab author, rate the tab!
1 2 3 4 5
comments
print report bad tab
guest
You may want to rate the tab now too:
select rating
Wanna post a correction for this tab? Suggest correction