Oops, an error
Loading. Please wait.

Chokehold Tab

version 1
version 1

Whole song

Interactive

8,702 views 18 this week
9 commentsread comments
1 2 3 4 5
excellent!
x 5
add to favorites
launch autoscroll
font size
0
reset
how to read this tab
guitar tuner
Autoscroll
slow
fast
+/-
esc
set tempo
stop
Help us to improve Ultimate-Guitar.com Take our survey!
×
Contributor
COBHC99 351
---------------------------------------------------------------------------- 
Chokehold
(Cocked'N'Loaded - Children of Bodom
----------------------------------------------------------------------------
Tabbed by:Steven A.
Email:KsE495@aol.com

Tuning:DGCFAD
 .=Palm Mute
T.H.= Touch harmonic-With note still ringing from previous pick attack,Lightly touch 

string above the fret indicated
P.H.=Pinch Harmonic
N.H.=Natural harmonic
x///= pick scrape

Intro:
|--------------------------------------------------------------------------|
|--------------------------------------------------------------------------|
|--------------------------------------------------------------------------|
|--------------------------------------------------------------------------|
|--------------------------------------------------------------------------|
|--0-12-13-0-13-12-0-12-0-12-10-0-10-12-0-12-0-12-13-0-13-12-0-0-0-0-0-0-0-|
   . .  .  . .  .  . .  . .  .  . .  .  . .  . .  .  . .  .  . . . . . . .

|--------------------------------------------------------------------------|
|--------------------------------------------------------------------------|
|--------------------------------------------------------------------------|
|--------------------------------------------------------------------------|
|--------------------------------------------------------------------------|
|--0-12-13-0-13-12-0-12-0-12-10-0-10-12-0-12-0-12-13-0-13-12-0-0-0-0-0-0-0-|
   . .  .  . .  .  . .  . .  .  . .  .  . .  . .  .  . .  .  . . . . . . .

  Riff 1:Play it fast                                    4th time play this
|------------------------------------------------------|-------------------|
|---------------------------------------------------x4-|-------------p.h.--|
|------------------------------------------------------|-------------4~~~~-|
|------------------------------------------------------|-------------------|
|--0h4/5---5/4---4-4p0---0h4---------------------------|-------------------|
|--0h2/3-3-3/2-2-2-2p0-0-0h2-2-2-2-2-2-2-2-2-2-2-2-2-2-|2-2-2-2-2-2--------|
         .     .       .     . . . . . . . . . . . . .  . . . . . .
  Riff 2:
|----------------------------------------------------------------|
|----------------------------------------------------------------|
|----------------------------------------------------------------|
|----------------------------------------------------------------|
|----7h8---8p7---7---7p5---5h7---7---7h8---8p7-------------------|
|--0-----0-----0---0-----0-----0---0-----0-----0-0-0-0-0-0-0-0-0-|
   .     .     .   .     .     .   .     .     . . . . . . . . .
2nd time:
|---------------------------------------------|
|---------------------------------------------|
|---------------------------------------------|
|---------9-7------------------12-10----------|
|--10-9-7-----10-9-7--13-12-10-------13-12-10-|
|---------------------------------------------|
  4th time:
|--------------------------------------|
|--------------------------------------|
|--------------------------------------|
|---------9-7---------------7-5--------|
|--10-9-7-----10-9-7--9-7-5-----9-7-5--|
|--------------------------------------|
  Verse:

  Pre-chorus:
|-------------------------------------|
|-------------------------------------|
|-------------------------------------|
|--2-2-2-4-7--5-5-5-4-5-2-2-2-2-2-x-x--|
|-----------------------2-2-2-2-2------|
|-----------------------0-0-0-0-0------|
     . .        . .     . . . . .
                     Bar Slack     T.H.   w/bar         N.H.
|---------------------\--------/----------------------------\--/---|
|----------------------\------/-----------\--/---\--/---7----\-----|
|---------------4^p0----\----/-------5-----\------\----------------|
|--2-2-2-4-7--5----------\--/--------------------------------------|
|-------------------------\----------------------------------------|
|------------------------------------------------------------------|
     . .        
|-------------------------------------------------------|
|-------------------------------------------------------|
|--2--2-2-4-4-7-7-5-5-5-4-4-5-5--9-----7-10-9-----7-10--|
|--------------------------------7-----5--8 7-----5--8--|
|----------------------------------0-0--------0-0-------|
|-------------------------------------------------------|
  .   . . . . . . . . . . .        . .        . .

                         Bar slack    T.H.
|-------------------------\------/--------------------------------|
|--2--2-2-4-4-7-7-5p4^p0---\----/---------\--/--\--/--\--/--------|
|---------------------------\--/-------7---\-----\-----\------///-|
|----------------------------\------------------------------------|
|-----------------------------------------------------------------|
|-----------------------------------------------------------------|
 Chorus:Not all open notes are exact, Figure it out.
|----------------------------------------------------------------------|
|----------------------------------------------------------------------|
|----------2-3-----------------5-4------------5-5-5-7-7-7-5-5-5-4-4-4--|
|----------2-3-----------------3-2------------5-5-5-5-5-5-7-7-7-5-5-5--|
|--0-0-0-0-----0-0-0-0-0-0-0-0-----0-0-19////--------------------------|
|----------------------------------------------------------------------|
   . . . .     . . . . . . . .     . .  . . .   
|--------------------------------------------------------------------------|
|--------------------------------------------------------------------------|
|----------2-3---------------------5-4-------------5-5-5-7-7-7-5-5-5-4-4-4-|
|----------2-3---------5-7---------3-2-------------5-5-5-5-5-5-7-7-7-5-5-5-|
|--0-0-0-0-----0-0-5-7-----0-0-0-0----0-0-19////---------------------------|
|--------------------------------------------------------------------------|
   . . . .     . . N.H>>>> . . . .    . .  . . .

Riff Under Solo: Gtr. 2
|------------------------------------------------------------------|
|------------------------------------------------------------------|
|------------------------------------------------------------------|
|-5---5--5--5--5--7---7--7--7--7--9---9--9--9--9--7--7--7--9--9--9-|
|-3---3--3--3--3--5---5--5--5--5--7---7--7--7--7--9--9--9--7--7--7-|
|------------------------------------------------------------------|

|--------------------------------------------------------|
|--------------------------------------------------------|
|--------------------------------------------------------|
|-5---5--5--5--5--7---7--7--7--7-------------------------|
|-3---3--3--3--3--5---5--5--5--5-2-2-2-2-2-2-2-2-2-2-2-2-|
|--------------------------------0-0-0-0-0-0-0-0-0-0-0-0-|
                                 . . . . . . . . . . . .  

|------------------------------------------------------------------|
|------------------------------------------------------------------|
|------------------------------------------------------------------|
|-5---5--5--5--5--7---7--7--7--7--9---9--9--9--9--7--7--7--9--9--9-|
|-3---3--3--3--3--5---5--5--5--5--7---7--7--7--7--7--7--7--7--7--7-|
|------------------------------------------------------------------|

|------------------------------------------------------------|
|------------------------------------------------------------|
|------------------------------------------------------------|
|-5---5--5--5--5--7---7--7--7--7-----------------------------|
|-3---3--3--3--3--5---5--5--5--5--2------(2)-----------------|
|---------------------------------0------(0)---x//////-------|


Solo: Gtr 1     Wah                              N.H.>>>>>>>>>>>>>> w/Bar
|--3/10--10--10--10------------------------------------------------5-\----|
|--------------------8-----10--10--10--10--8--7-----------7-----5-----\---|
|-----------------------7------------------------------5-----5---------\--|
|---------------------------------------------------5-------------------\-|
|------------------------------------------------5------------------------|
|-------------------------------------------------------------------------|
                    ~~            ~~
|------------------------------------------------------12---|
|-------------8--7-----------8--7------------7--8p7/8-------|
|----------5--------------7---------9--7--9-----------------|
|-------5--------------7------------------------------------|
|-----------------------------------------------------------|
|-----------------------------------------------------------|
        .  .           .  .         .  .  .  .
                      ~~                 ~~
|--------14---------15^----15--14--12--14---14--12-----15--|
|--8/10------10/12---------------------------------15^-----|
|----------------------------------------------------------|
|----------------------------------------------------------|
|----------------------------------------------------------|
|----------------------------------------------------------|
          
    Slack bar    Vib. W/bar
|------------------22^-------19--19--19--19--22--19--17--17--17--17------|
|---15//22---------22^-----------------------------------------------20--|
|------------------------------------------------------------------------|
|------------------------------------------------------------------------|
|------------------------------------------------------------------------|
|------------------------------------------------------------------------|

               Decrease Bar Then increase slowly
                N.H.
|--------0------17--(17)--(17)--|
|--19p17p0------17--(17)--(17)--|
|---------------17--(17)--(17)--|
|-------------------------------|
|-------------------------------|
|-------------------------------|
Suggest correction What's this?
You can suggest a correction to this tab. Community and Mods will review your correction and vote to approve or reject it.
comments
print report bad tab
9 comments total. Showing first comments.
0 reply
Cobain-iac_90 126 wrote on May 15 2005, 12:00 am

Man, this is the most accurate tab of this song I've ever seen. Keep on going man.

0 reply
shadowofbodom 316 wrote on May 29 2005, 12:00 am

good ***in job

0 reply
blind4115 47 wrote on August 17 2005, 12:00 am

Im pretty sure when u got the slide downward from 15 in the chorus part should be on D and G. and when u play the 15's then u palm mute 0's on A while ur sliding down (If that makes sence). but other then that its a wicked nice tab man keep it up

I want to post or [tab]
guest
You may want to rate the tab now too:
select rating
Please do not post tabs as comments. Select "correction" instead!