Oops, an error
Loading. Please wait.

Done With Everything Die For Nothing Bass Tab

version 1
version 1

Whole song

Interactive

2,265 views 1 this week
no commentswrite comment
1 2 3 4 5
please rate
add to favorites
launch autoscroll
font size
0
reset
guitar tuner
Tab Pro tools
  • play this tab
  • loop segment
  • change instrument
  • show fretboard
  • metronome
×
Best way to learn
"Done With Everything Die For Nothing"
Autoscroll
slow
fast
+/-
esc
set tempo
stop
Contributor
Difficulty
Tuning
intermediate
D G C F A D
DONE WITH EVERYTHING, DIE FOR NOTHING:CHLDREN OF BODOM            STANDARD D

Intro
F|----------------------------------------------------------------|
C|----------------------------------------------------------------|
G|-----------------------------------------------------------3~---|
D|----------------------------------------------------------------|

F|-----------------------------------------------------------------|  
C|-----------------------------------------------------------------|
G|-------2p-0--2p-0-------------------------------------------0~---|   
D|-----------2------2--0-2-2-0-2-2---------------------------------|

F|-----------------------|
C|-----------------------|
G|-2p-0---2p-0-----------|
D|------2------2---------|

Now in Sync with the guitar:
F|----------------------------------------------------------------------|
C|----------------------------------------------------------------------|
G|---------------------------3~-----------------------------2p-0--2p-0--|
D|-0-2-2-0-2-2---0-2-2-0-2-0-------0-2-2-0-2-2--0-2-2-0-2-0------2-----2|

F|----------------------------------------------------------------------|
C|----------------------------------------------------------------------|
G|---------------------------0~-----------------------------2p-0--2p-0--|
D|-0-2-2-0-2-2---0-2-2-0-2-0-------0-2-2-0-2-2--0-2-2-0-2-0------2-----2|


During first mini solo (Pound these)
F|---------------------------------------|
C|-----------6---------------------------|
G|--8---6--------6---8---6---7~----------|
D|---------------------------------------|

Verse
F|---------------------------------------|
C|---------------------------------------|
G|---------------------------------------|
D|----00--------000----------00----------|

F|---------------------------------------|
C|---------------------------------------|
G|---------------------------------------|
D|--0-0-0-0-0-0-0-9/////-----------------|

F|---------------------------------|
C|---------------------------------|
G|---------------------------------|
D|----00-----00-------33------22---|

F|---------------------------------|
C|---------------------------------|
G|-----------------------------00~-|
D|----00-----00--------33----------|

F|------------------------------------------------------|
C|------------------------------------------------------|
G|------------------------------------------------------|
D|-0000000000000000-333333-2222222222-------------------|

F|------------------------------------------------------|
C|------------------------------------------------------|
G|-------------------------222222222--------------------|
D|-0000000000000000-333333------------------------------|

F|-------------------------------------------------------|
C|-------------------------------------------------------|
G|-6666666666664444666666600000000---(2x)----------------|
D|-------------------------------------------------------|

F|--------------------|
C|--------------------|
G|--------------------|
D|---6--5--3p0--------|

  Guitar Solo
F|-----------------------------------------------------------|
C|-----------------------------------------------------------|
G|--------------------------3~--------------------------0~---|2x
D|-0-2-2-0-2-2--0-2-0-2-0-2----0-2-2-0-2-2--0-2-0-2-0-2------|

  Pound It!!!!!
F|-------------------------|
C|---------6---------------|
G|---8--6-----6--8--6--7~--|
D|-------------------------|

F|---------------------------------------------------------|
C|---------------------------------------------------------|
G|-------------------------------------------------00------|
D|---00----00------33----22-----00----00------33-----------|

F|---------------------------------------------------------|
C|---------------------------------------------------------|
G|--------------------------------------------------22-----|
D|---22----22------55----44-----22-----22------55----------|

F|-------------------------------------------------------------------|
C|-------------------------------------------------------------------|
G|--4-44444444444444-0-00000000000000-1-11111-3-33333-4-44444-777777-|
D|-------------------------------------------------------------------|

F|-------------------------------------------------------------------|
C|-------------------------------------------------------------------|
G|--1-11111111111111-4-44444444444444-1-11111-3-33333-4-44444-111111-|
D|-------------------------------------------------------------------|

F|-------------------------------------------------------------------|
C|-------------------------------------------------------------------|
G|--------------------------------------------------4-8--------------|
D|-0-1-1--------1-0-0-----0-1-1-----1-1-0-0-----4-6------------------|

F|---------------------------------------------|
C|---------------------------------------------|
G|----4-6---9-6---13-11-9--4-6---8-4-------4-8-|
D|--00---000---000-------00---000---000-4-6----|

F|-----------------------------------------|
C|-----------------------------------------|
G|-00000000-8\1---2-0-1-00000000-8\1---0-3-|  2X
D|-----------------------------------------|

F|---------------------------------------------|
C|---------------------------------------------|
G|-3333333333333333-1111-3333333333333333------|
D|-----------------------------------------2-0-|

F|-------------------------------------------------|
C|-------------------------------------------------|
G|-3333333333333333-1111-3333333333333333----------|
D|----------------------------------------3-5-6-0-1|

F|-------------------------------------------------|
C|-------------------------------------------------|
G|-------------------------------------------------|  2X
D|-22222222222200002222222222222222-3~5~6~2~-------|

F|--------------------------------------------------|
C|-------7~--------7----------------7~--------------|
G|-------------------7-7-7-7-----------2------------|
D|-4-4444---4-4-4-4-----------4-4444-----0-1-3------|

F|----------------------------------------------------------------|
C|-------7~--------7----------------7~----------------------------|
G|-------------------7-7-7-7----------3-0-7-5-/7-7-7-7-7-7-7-7-7-5|
D|-4-4444---4-4-4-4-----------4-4444------------------------------|

F|-------------------------------------------------------------------|
C|-------------------------------------------------------------------|
G|--4-44444444444444-0-00000000000000-1-11111-3-33333-4-44444-777777-|
D|-------------------------------------------------------------------|

F|-------------------------------------------------------------------|
C|-------------------------------------------------------------------|
G|--1-11111111111111-4-44444444444444-1-11111-3-33333-4-44444-111111-|
D|-------------------------------------------------------------------|

F|---------------------|
C|---------------------|
G|---------------------|
D|-0-2-2-0-2-2---0-2-2-|

@   @   @      @@@@@
@   @   @     @     @
@@@@@@@@@    @       @
             @@@@@@@@@           If there is any mistakes please comment
@@@@@@@@@                        or notify me at etasker5@yahoo.com!!!!!
    @        @@@@@@@@@
    @             @
@@@@@@@@@       @
              @
@            @@@@@@@@@
@
@@@@@@@@@    @   @   @
@            @   @   @
@            @@@@@@@@@
comments
We did not receive enough feedback on this tab! Please rate:
print report bad tab
1 2 3 4 5
I want to post or [tab]
guest
You may want to rate the tab now too:
select rating
Please do not post tabs as comments. Select "correction" instead!