Oops, an error
Loading. Please wait.

Downfall Tab

version 2
version 2
4,761 views 1 this week
no commentswrite comment
1 2 3 4 5
please rate
add to favorites
launch autoscroll
font size
0
reset
how to read this tab
guitar tuner
Tab Pro tools
  • play this tab
  • loop segment
  • change instrument
  • show fretboard
  • metronome
×
Best way to learn
"Downfall"
Autoscroll
slow
fast
+/-
esc
set tempo
stop
Difficulty
Tuning
advanced
D G C F A D
Track 1
                                              not struck       
       Q.      Q.      Q        Q.      E     Q          Q     
E||-------------------------|--17-----------------------------|
B||--/17------19------20----|----------20br---L---------19----|
G||-------------------------|---------------------------------|
D||-------------------------|---------------------------------|
A||-------------------------|---------------------------------|
E||-------------------------|---------------------------------|


   H         S  S  S  S  S  S  S  S  
---------------------17-19-20-19-17-|
--17--------17-19-20----------------|
------------------------------------|
------------------------------------|
------------------------------------|
------------------------------------|


   S  S  S  S  S  S  S  S  S  S  S  S  S  S  S  S      Q.      Q.      Q     
--19-17----------------17-19-20-22-20-19-17-------|-------------------------|
--------20-19-17-19-20----------------------20-19-|--/17------19------20----|
--------------------------------------------------|-------------------------|
--------------------------------------------------|-------------------------|
--------------------------------------------------|-------------------------|
--------------------------------------------------|-------------------------|


                                       |---3---|                              
   S  S  S  S  S  S  S  S  S  S  S  S  E   E   E      Q     E   Q.      Q     
--20-17-------17-14-------12-15-------15--12------|--14----15--12------14----
--------20----------16----------12-15---------12--|--------------------------
-----------21----------17-------------------------|--------------------------
--------------------------------------------------|--------------------------
--------------------------------------------------|--------------------------
--------------------------------------------------|--------------------------


                 PH      PH                              
   E   Q.        Q       Q         Q.      Q.      Q     
--15--12----------------------|-------------------------|
------------------------------|--/17------19------20----|
--------------<>14----<>12----|-------------------------|
------------------------------|-------------------------|
------------------------------|-------------------------|
------------------------------|-------------------------|


                 Not struck       
   Q.      E     Q          Q     
--17-----------------------------|
----------20br---L---------------|
---------------------------17----|
---------------------------------|
---------------------------------|
---------------------------------|


   S  S  S  S  S  S  S  S  S  S  S  S  S  S  S  S  
-----------------------------------17-------17-19-|
-----15-17-19-15-17-19-20-17-19-20----19-20-------|
--17----------------------------------------------|
--------------------------------------------------|
--------------------------------------------------|
--------------------------------------------------|


   S  S  S  S  S  S  S  S  S  S  S  S  S  S  S  S  
-----17-19-20-17-19-20-19-17-19-17-19-20-19-17-19-|
--20----------------------------------------------|
--------------------------------------------------|
--------------------------------------------------|
--------------------------------------------------|
--------------------------------------------------|


   S  S  S  S  S  S  S  S  S  S  S  S  S  S  S  S  
--17-19-20-19-17-19-17-19-20-19-17-19-17-19-20-19-|
--------------------------------------------------|
--------------------------------------------------|
--------------------------------------------------|
--------------------------------------------------|
--------------------------------------------------|


   S  S  S  S  Q     S  S  S  S  S  S  S  S  
--17-19-20-19S-L----24-22-20-19-22-20-19-17-|
--------------------------------------------|
--------------------------------------------|
--------------------------------------------|
--------------------------------------------|
--------------------------------------------|


   S  S  S  S  S  S  S  S  S  S  S  S  S  S  S  S  
--20-19-17-15-19-17-15-14-17-15-14-12-15-14-12-11-|
--------------------------------------------------|
--------------------------------------------------|
--------------------------------------------------|
--------------------------------------------------|
--------------------------------------------------|


   E  E   E  E   E   E   E   E      E   E   E   E   E   E   E   E   
--12-----11-----12--15--15--12--|--12------------------20--20--17--|
--------------------------------|------12--12----------------------|
--------------------------------|--------------12--17--------------|
--------------------------------|----------------------------------|
--------------------------------|----------------------------------|
--------------------------------|----------------------------------|


   E   E   E   E   E   E   E   E      E   E   E   E   E   E   E   E   
--17--------------19--17--15--19--|--17--15------17--15--14--15--17--|
------17--17----------------------|----------19----------------------|
--------------17------------------|----------------------------------|
----------------------------------|----------------------------------|
----------------------------------|----------------------------------|
----------------------------------|----------------------------------|


   H           E   E   E   E      E   E   E   E   E   E   E   E   
--17b~--------12--15--15--12--|--12------------------20--20--17--|
------------------------------|------12--12----------------------|
------------------------------|--------------12--17--------------|
------------------------------|----------------------------------|
------------------------------|----------------------------------|
------------------------------|----------------------------------|


   E   E   E   E   S  S  S  S  S  S  S  S  
--17-----------------------17-19-20-19-17-|
------17--17------17-19-20----------------|
--------------17--------------------------|
------------------------------------------|
------------------------------------------|
------------------------------------------|


   S  S  S  S  S  S  S  S Q     E  E      E  Q    E    
--------------------------------------|--------------||
--20-19-17---------------------16-----|--17----------||
-----------19-17-16-------------------|--------------||
--------------------19-17-------------|--------------||
--------------------------------------|--------------||
--------------------------------------|--------------||




Duration Legend
---------------
W - whole
H - half
Q - quarter
E - 8th
S - 16th
T - 32nd
X - 64th
. - note dotted
|-n-|  - n-tuplets


Tablature Legend
----------------
L - tied note
x - dead note
g - grace note
(n) - ghost note
> - accentuded note
NH - natural harmonic
AH - artificial harmonic
TH - tapped harmonic
SH - semi harmonic
PH - pitch harmonic
h - hammer on
p - pull off
b - bend
br - bendRelease
pb - preBend
pbr - preBendRelease
brb - bendReleaseBend
\n/ - tremolo bar dip
\n - tremolo bar dive
-/n - tremolo bar Release up
/n\ - tremolo bar inverted dip
/n - tremolo bar return
-\n - tremolo bar Release down
S - shift slide
s - legato slide
/ -  slide into from below or out of upwards
\ -  slide into from above or out of downwards
~ - vibrato
W - wide vibrato
tr - trill
TP - tremolo picking
T - tapping
S - slap
P - pop
< - fade in
^ - brush up
v - brush down
comments
We did not receive enough feedback on this tab! Please rate:
print report bad tab
1 2 3 4 5
I want to post or [tab]
guest
You may want to rate the tab now too:
select rating
Please do not post tabs as comments. Select "correction" instead!