Oops, an error
Loading. Please wait.

Downfall Tab

version 4
version 4
27,085 views 27 this week
8 commentsread comments
1 2 3 4 5
x 10
add to favorites
launch autoscroll
font size
0
reset
how to read this tab
guitar tuner
backing track
0:00
0:00
×
Best way to learn
"Downfall"
Autoscroll
slow
fast
+/-
esc
set tempo
stop
Author
Difficulty
Tuning
  follow
intermediate
D A D G B E
Tabbed By Sunny!

Downfall

Tuning - D A F C G D

(Small Keyboard Intro)

D|--x---------------------|-----------------------------|
G|--x---------------------|-----------------------------|
C|--x---------------------|-----------------------------|
F|--x---------------------|--10------------9------------|
A|--x---------------------|------0--7--10-----0--7--10--|
D|--x----0--0--15/-----0--|-----------------------------|

D|----------------------------|-----------------------------|
G|----------------------------|-----------------------------|
C|----------------------------|-----------------------------|
F|--7---------7------------7--|--10------------9------------|
A|-----7--10-----0--7--10-----|------0--7--10-----0--7--10--|
D|----------------------------|-----------------------------|

D|----------------------------|-----------------------------|
G|----------------------------|-----------------------------|
C|----------------------------|-----------------------------|
F|--7---------7------------7--|--10------------9------------|
A|-----7--10-----0--7--10-----|------0--7--10-----0--7--10--|
D|----------------------------|-----------------------------|

D|----------------------------|-----------------------------|
G|----------------------------|-----------------------------|
C|----------------------------|-----------------------------|
F|--7---------7------------7--|--10------------9------------|
A|-----7--10-----0--7--10-----|------0--7--10-----0--7--10--|
D|----------------------------|-----------------------------|

D|----------------------------|-----------------------------|
G|----------------------------|-----------------------------|
C|----------------------------|-----------------------------|
F|--7---------7--------10h-9--|--10------------9------------|
A|-----7--10-----0--7---------|------0--7--10-----0--7--10--|
D|----------------------------|-----------------------------|

D|----------------------------|-----------------------------|
G|----------------------------|-----------------------------|
C|----------------------------|-----------------------------|
F|--7---------7------------7--|--10------------9------------|
A|-----7--10-----0--7--10-----|------0--7--10-----0--7--10--|
D|----------------------------|-----------------------------|

D|----------------------------|-----------------------------|
G|----------------------------|-----------------------------|
C|----------------------------|-----------------------------|
F|--7---------7------------7--|--10------------9------------|
A|-----7--10-----0--7--10-----|------0--7--10-----0--7--10--|
D|----------------------------|-----------------------------|

D|----------------------------|-----------------------------|
G|----------------------------|-----------------------------|
C|----------------------------|-----------------------------|
F|--7---------7------------7--|--10------------9------------|
A|-----7--10-----0--7--10-----|------0--7--10-----0--7--10--|
D|----------------------------|-----------------------------|

D|----------------------------|-----------------------------|
G|----------------------------|-----------------------------|
C|----------------------------|-----------------------------|
F|--7---------7--------10h-9--|--10------------9------------|
A|-----7--10-----0--7---------|------0--7--10-----0--7--10--|
D|----------------------------|-----------------------------|

D|----------------------------|-----------------------------|
G|----------------------------|-----------------------------|
C|----------------------------|-----------------------------|
F|--7---------7------------7--|--10------------9------------|
A|-----7--10-----0--7--10-----|------0--7--10-----0--7--10--|
D|----------------------------|-----------------------------|

D|----------------------------|-----------------------------|
G|----------------------------|-----------------------------|
C|----------------------------|-----------------------------|
F|--7---------7------------7--|--10------------9------------|
A|-----7--10-----0--7--10-----|------0--7--10-----0--7--10--|
D|----------------------------|-----------------------------|

D|----------------------------|-----------------------------|
G|----------------------------|-----------------------------|
C|----------------------------|-----------------------------|
F|--7---------7------------7--|--10------------9------------|
A|-----7--10-----0--7--10-----|------0--7--10-----0--7--10--|
D|----------------------------|-----------------------------|

D|----------------------------|-----------------------------|
G|----------------------------|-----------------------------|
C|----------------------------|-----------------------------|
F|--7---------7--------10h-9--|--10------------9------------|
A|-----7--10-----0--7---------|------0--7--10-----0--7--10--|
D|----------------------------|-----------------------------|

D|----------------------------|-----------------------------|
G|----------------------------|-----------------------------|
C|----------------------------|-----------------------------|
F|--7---------7------------7--|--10------------9------------|
A|-----7--10-----0--7--10-----|------0--7--10-----0--7--10--|
D|----------------------------|-----------------------------|

D|----------------------------|-----------------------------|
G|----------------------------|-----------------------------|
C|----------------------------|-----------------------------|
F|--7---------7------------7--|--10------------9------------|
A|-----7--10-----0--7--10-----|------0--7--10-----0--7--10--|
D|----------------------------|-----------------------------|

D|----------------------------|-----------------------------|
G|----------------------------|-----------------------------|
C|----------------------------|--9-------------7------------|
F|--7---------7------------7--|--10------------9------------|
A|-----7--10-----0--7--10-----|------0--7--10-----0--7--10--|
D|----------------------------|-----------------------------|

D|-------------------------|-------------------|-------------------|
G|-------------------------|-------------------|-------------------|
C|--5---------5------------|-------------------|-------------------|
F|--7---------7--5--3------|--2----------------|--3----------------|
A|-----7--10-----5--3------|--2----------------|--3----------------|
D|---------------3--1------|--0----------------|--1----------------|

E|-------------------|-------------------|-------------------|-------------------|
B|-------------------|-------------------|-------------------|-------------------|
G|-------------------|--5----------------|-------------------|-------------------|
D|--7----------------|--5----------------|--3----------------|--7----------------|
A|--7----------------|--3----------------|--3----------------|--7----------------|
D|--5----------------|-------------------|--1----------------|--5----------------|

D|-------------------|-------------------|--------------------------|
G|-------------------|-------------------|--------------------------|
C|--5----------------|--9----------------|--9--9--9--9--9--9--9--9--|
F|--5----------------|--9----------------|--------------------------|
A|--3----------------|--7----------------|--7--7--7--7--7--7--7--7--|
D|-------------------|-------------------|--------------------------|

D|----------------------------------|----------------------------------|
G|----------------------------------|--10--10--10--10--10--10--10--10--|
C|--10--10--10--10--10--10--10--10--|----------------------------------|
F|----------------------------------|--7---7---7---7---7---7---7---7---|
A|--8---8---8---8---8---8---8---8---|----------------------------------|
D|----------------------------------|----------------------------------|

D|----------------------------------|----------------------------------|
G|--13--13--13--13--13--13--13--13--|----------------------------------|
C|----------------------------------|--10--10--10--10--10--10--10--10--|
F|--10--10--10--10--10--10--10--10--|----------------------------------|
A|----------------------------------|--8---8---8---8---8---8---8---8---|
D|----------------------------------|----------------------------------|

D|----------------------------------|----------------------------------|
G|--10--10--10--10--10--10--10--10--|--13--13--13--13--13--13--13--13--|
C|----------------------------------|----------------------------------|
F|--7---7---7---7---7---7---7---7---|--10--10--10--10--10--10--10--10--|
A|----------------------------------|----------------------------------|
D|----------------------------------|----------------------------------|

D|--12--12--12--12--12--12--12--12--|--------------------------|
G|----------------------------------|--------------------------|
C|--9---9---9---9---9---9---9---9---|--9--9--9--9--9--9--9--9--|
F|----------------------------------|--------------------------|
A|----------------------------------|--7--7--7--7--7--7--7--7--|
D|----------------------------------|--------------------------|

D|----------------------------------|----------------------------------|
G|----------------------------------|--10--10--10--10--10--10--10--10--|
C|--10--10--10--10--10--10--10--10--|----------------------------------|
F|----------------------------------|--7---7---7---7---7---7---7---7---|
A|--8---8---8---8---8---8---8---8---|----------------------------------|
D|----------------------------------|----------------------------------|

D|----------------------------------|----------------------------------|
G|--13--13--13--13--13--13--13--13--|----------------------------------|
C|----------------------------------|--10--10--10--10--10--10--10--10--|
F|--10--10--10--10--10--10--10--10--|----------------------------------|
A|----------------------------------|--8---8---8---8---8---8---8---8---|
D|----------------------------------|----------------------------------|

D|----------------------------------|----------------------------------|
G|--10--10--10--10--10--10--10--10--|--13--13--13--13--13--13--13--13--|
C|----------------------------------|----------------------------------|
F|--7---7---7---7---7---7---7---7---|--10--10--10--10--10--10--10--10--|
A|----------------------------------|----------------------------------|
D|----------------------------------|----------------------------------|

D|--12--12--12--12--12--12--12--12--|------------------------|------------------|
G|----------------------------------|------------------------|------------------|
C|--9---9---9---9---9---9---9---9---|------------------------|------------------|
F|----------------------------------|--7--------8----5----7--|------------------|
A|----------------------------------|--7--------8----5----7--|------------------|
D|----------------------------------|--5----5-5-6----3----5--|------------------|

D|------------------------|------------------|------------------------|
G|------------------------|------------------|------------------------|
C|------------------------|------------------|------------------------|
F|--8--------3----5----8--|------------------|--7--------8----5----7--|
A|--8--------3----5----8--|------------------|--7--------8----5----7--|
D|--6----1-1-1----3----6--|------------------|--5----5-5-6----3----5--|

D|------------------|------------------------|
G|------------------|------------------------|
C|------------------|------------------------|
F|------------------|--8--------3----5----8--|
A|------------------|--8--------3----5----8--|
D|------------------|--6----1-1-1----3----6--|

D|-------------------------------------|--------------------|------|------|------|
G|--------12--13--15--13h15h13-12--12--|--13/---------------|------|------|------|
C|----14-------------------------------|--------------------|------|------|------|
F|-------------------------------------|--------------------|------|------|------|
A|-------------------------------------|--------------------|------|------|------|
D|-------------------------------------|--------------------|------|------|------|

D|------|------|------|--x-------------------|-------------------|
G|------|------|------|--x-------------------|-------------------|
C|------|------|------|--x-------------------|-------------------|
F|------|------|------|--x-------------------|--7----------------|
A|------|------|------|--x-------------------|--7----------------|
D|------|------|------|--x----3/-----15/-----|--5----------------|

D|-------------------|-------------------|-------------------|-------------------|
G|-------------------|-------------------|-------------------|-------------------|
C|--5----------------|-------------------|--7----------------|-------------------|
F|--5----------------|--5----------------|--7----------------|--7----------------|
A|--3----------------|--5----------------|--5----------------|--7----------------|
D|-------------------|--3----------------|-------------------|--5----------------|

D|-------------------|-------------------|-------------------|
G|-------------------|-------------------|-------------------|
C|--5----------------|-------------------|--7----------------|
F|--5----------------|--5----------------|--7----------------|
A|--3----------------|--5----------------|--5----------------|
D|-------------------|--3----------------|-------------------|

D|-------------------------|------------------------|-------------------|
G|-------------------------|------------------------|-------------------|
C|-------------------------|------------------------|-------------------|
F|--7-----7--5-------5--7--|-------7--5-------5-----|--3----------------|
A|--7-----7--5-------5--7--|-------7--5-------5-----|--3----------------|
D|--5--5--5--3----3--3--5--|----5--5--3----3--3--1--|--1----------------|

D|----------------------------|--------------------|--------------------|
G|----------------------------|--------------------|--------------------|
C|----------------------------|--------------------|--------------------|
F|----------------------------|--7--------2--------|--7--------2--------|
A|----------------------------|--7--------2--------|--7--------2--------|
D|--1-1-1-1-1----1-1-1-1-1----|--5--------0--------|--5--------0--------|

D|--------------------|--------------------|--------------------|
G|--------------------|--------------------|--------------------|
C|--------------------|--------------------|--------------------|
F|--3--------5--------|--7--------2--------|--7--------2--------|
A|--3--------5--------|--7--------2--------|--7--------2--------|
D|--1--------3--------|--5--------0--------|--5--------0--------|

D|--------------------|--------------------|-----------------------|
G|--------------------|--------------------|-----------------------|
C|--------------------|--------------------|-----------------------|
F|--7--------2--------|--3--------5--------|--7-----------5--------|
A|--7--------2--------|--3--------5--------|--7--------5-----------|
D|--5--------0--------|--1--------3--------|--5--7--8--------------|

D|--------------------|--------------------|--------------------|
G|--------------------|--------------------|--------------------|
C|--------------------|--------------------|--------------------|
F|--7--------2--------|--7--------2--------|--3--------5--------|
A|--7--------2--------|--7--------2--------|--3--------5--------|
D|--5--------0--------|--5--------0--------|--1--------3--------|

D|--------------------|--------------------|--------------------|
G|--------------------|--------------------|--------------------|
C|--------------------|--------------------|--------------------|
F|--7--------2--------|--7--------2--------|--7--------2--------|
A|--7--------2--------|--7--------2--------|--7--------2--------|
D|--5--------0--------|--5--------0--------|--5--------0--------|

D|--------------------|-------------------|------------------------|
G|--------------------|-------------------|------------------------|
C|--------------------|-------------------|------------------------|
F|--3--------5--------|--7----------------|--7--------8----5----7--|
A|--3--------5--------|--7----------------|--7--------8----5----7--|
D|--1--------3--------|--5----------------|--5----5-5-6----3----5--|

D|--------------------------|------------------------|
G|--------------------------|------------------------|
C|----9--7--9--10--9--7--9--|------------------------|
F|--------------------------|--8--------3----5----8--|
A|--------------------------|--8--------3----5----8--|
D|--------------------------|--6----1-1-1----3----6--|

D|------------------------------|------------------------|
G|------------------------------|------------------------|
C|----10--9--10--12--10--9--10--|------------------------|
F|------------------------------|--7--------8----5----7--|
A|------------------------------|--7--------8----5----7--|
D|------------------------------|--5----5-5-6----3----5--|

D|--------------------------|------------------------|
G|--------------------------|------------------------|
C|----9--7--9--10--9--7--9--|------------------------|
F|--------------------------|--8--------3----5----8--|
A|--------------------------|--8--------3----5----8--|
D|--------------------------|--6----1-1-1----3----6--|

D|------------------------------|-----------------------------|
G|------------------------------|-----------------------------|
C|----10--9--10--12--10--9--10--|-----------------------------|
F|------------------------------|--10------------9------------|
A|------------------------------|------0--7--10-----0--7--10--|
D|------------------------------|-----------------------------|

D|----------------------------|-----------------------------|
G|----------------------------|-----------------------------|
C|----------------------------|-----------------------------|
F|--7---------7------------7--|--10------------9------------|
A|-----7--10-----0--7--10-----|------0--7--10-----0--7--10--|
D|----------------------------|-----------------------------|

D|----------------------------|-----------------------------|
G|----------------------------|-----------------------------|
C|----------------------------|-----------------------------|
F|--7---------7------------7--|--10------------9------------|
A|-----7--10-----0--7--10-----|------0--7--10-----0--7--10--|
D|----------------------------|-----------------------------|

D|----------------------------|-----------------------------|
G|----------------------------|-----------------------------|
C|----------------------------|-----------------------------|
F|--7---------7------------7--|--10------------9------------|
A|-----7--10-----0--7--10-----|------0--7--10-----0--7--10--|
D|----------------------------|-----------------------------|

D|---------------------|-------------------|-------------------|
G|---------------------|-------------------|-------------------|
C|---------------------|-------------------|-------------------|
F|--7--------5--3------|--2----------------|--3----------------|
A|-----------5--3------|--2----------------|--3----------------|
D|-----------3--1------|--0----------------|--1----------------|

D|-------------------|-------------------|-------------------|-------------------|
G|-------------------|-------------------|-------------------|-------------------|
C|-------------------|--5----------------|-------------------|-------------------|
F|--7----------------|--5----------------|--3----------------|--7----------------|
A|--7----------------|--3----------------|--3----------------|--7----------------|
D|--5----------------|-------------------|--1----------------|--5----------------|

D|-------------------|-------------------|--------------------------|
G|-------------------|-------------------|--------------------------|
C|--5----------------|--9----------------|--9--9--9--9--9--9--9--9--|
F|--5----------------|--9----------------|--------------------------|
A|--3----------------|--7----------------|--7--7--7--7--7--7--7--7--|
D|-------------------|-------------------|--------------------------|

D|----------------------------------|----------------------------------|
G|----------------------------------|--10--10--10--10--10--10--10--10--|
C|--10--10--10--10--10--10--10--10--|----------------------------------|
F|----------------------------------|--7---7---7---7---7---7---7---7---|
A|--8---8---8---8---8---8---8---8---|----------------------------------|
D|----------------------------------|----------------------------------|

D|----------------------------------|----------------------------------|
G|--13--13--13--13--13--13--13--13--|----------------------------------|
C|----------------------------------|--10--10--10--10--10--10--10--10--|
F|--10--10--10--10--10--10--10--10--|----------------------------------|
A|----------------------------------|--8---8---8---8---8---8---8---8---|
D|----------------------------------|----------------------------------|

D|----------------------------------|----------------------------------|
G|--10--10--10--10--10--10--10--10--|--13--13--13--13--13--13--13--13--|
C|----------------------------------|----------------------------------|
F|--7---7---7---7---7---7---7---7---|--10--10--10--10--10--10--10--10--|
A|----------------------------------|----------------------------------|
D|----------------------------------|----------------------------------|

D|--12--12--12--12--12--12--12--12--|--------------------------|
G|----------------------------------|--------------------------|
C|--9---9---9---9---9---9---9---9---|--9--9--9--9--9--9--9--9--|
F|----------------------------------|--------------------------|
A|----------------------------------|--7--7--7--7--7--7--7--7--|
D|----------------------------------|--------------------------|

D|----------------------------------|----------------------------------|
G|----------------------------------|--10--10--10--10--10--10--10--10--|
C|--10--10--10--10--10--10--10--10--|----------------------------------|
F|----------------------------------|--7---7---7---7---7---7---7---7---|
A|--8---8---8---8---8---8---8---8---|----------------------------------|
D|----------------------------------|----------------------------------|

D|----------------------------------|----------------------------------|
G|--13--13--13--13--13--13--13--13--|----------------------------------|
C|----------------------------------|--10--10--10--10--10--10--10--10--|
F|--10--10--10--10--10--10--10--10--|----------------------------------|
A|----------------------------------|--8---8---8---8---8---8---8---8---|
D|----------------------------------|----------------------------------|

D|----------------------------------|----------------------------------|
G|--10--10--10--10--10--10--10--10--|--13--13--13--13--13--13--13--13--|
C|----------------------------------|----------------------------------|
F|--7---7---7---7---7---7---7---7---|--10--10--10--10--10--10--10--10--|
A|----------------------------------|----------------------------------|
D|----------------------------------|----------------------------------|

D|--12--12--12--12--12--12--12--12--|------|------|-------------------|
G|----------------------------------|------|------|-------------------|
C|--9---9---9---9---9---9---9---9---|------|------|-------------------|
F|----------------------------------|------|------|----------------3--|
A|----------------------------------|------|------|----------------3--|
D|----------------------------------|------|------|----------------1--|

D|-------------------|-------------------|--------------------|
G|-------------------|-------------------|--------------------|
C|-------------------|--7----------------|--------------------|
F|--3----------------|--7----------------|--------------------|
A|--3----------------|--5----------------|--------------------|
D|--1----------------|-------------------|--------------3--3--|

D|--------------------|-----------------------|-------------------|
G|--------------------|-----------------------|-------------------|
C|--5-----------------|------------7----------|--7----------------|
F|--5--------5--------|------------5----------|--7----------------|
A|--3--------5--------|------5--5--5----5--5--|--5----------------|
D|-----------3--------|-----------------------|-------------------|

D|------------------|--------------------|-----------------------|
G|------------------|--------------------|-----------------------|
C|------------------|----9---------------|-----------------------|
F|------------------|----9------5--------|------------5----------|
A|------------------|----7------5--------|------------5----------|
D|------------------|-----------3--------|------3--3--3----3--3--|

D|-------------------|
G|-------------------|
C|--2----------------|
F|--2----------------|
A|--0----------------|
D|-------------------|

[Keyboard Solo Break]
D|-------------------|--------------------|
G|-------------------|--------------------|
C|-------------------|--------------------|
F|-------------------|--------------------|
A|-------------------|--------------------|
D|----------0/-------|--20/---------------|

D|-----------------------|-----------------------|-----------------------|
G|-----------------------|-----------------------|-----------------------|
C|--9-------9-------9----|--5-------7-------7----|--9-------9-------9----|
F|--9-------9-------9----|--5-------7-------7----|--9-------9-------9----|
A|--7----7--7----7--7----|--3----3--5----5--5----|--7----7--7----7--7----|
D|-----------------------|-----------------------|-----------------------|

D|-----------------------|-----------------------|-------------------------|
G|-----------------------|-----------------------|-------------------------|
C|--5-------7-------7----|--9-------9-------9----|--8----11----14----11----|
F|--5-------7-------7----|--9-------9-------9----|--8----11----14----11----|
A|--3----3--5----5--5----|--7----7--7----7--7----|--6----9-----12----9-----|
D|-----------------------|-----------------------|-------------------------|

D|-----------------------|----------------------|-----------------------|
G|-----------------------|----------------------|-----------------------|
C|--7-------9-------7----|-----9------7----5----|--9-------9-------9----|
F|--7-------9-------7----|-----9------7----5----|--9-------9-------9----|
A|--5----7--7----5--5----|--7--7------5----3----|--7----7--7----7--7----|
D|-----------------------|----------------------|-----------------------|

D|-----------------------|----------------------|-------------------------|
G|-----------------------|-----------------7----|--8----10----12------12--|
C|--5-------7-------7----|--5----7----9----6----|--7----9-----11------11--|
F|--5-------7-------7----|--5----7----9----4----|--5----7-----9-------9---|
A|--3----3--5----5--5----|--3----5----7---------|-------------------------|
D|-----------------------|----------------------|-------------------------|

D|----------------------|--------------------|------------------------|
G|----------12------12--|--------------------|------------------------|
C|----------11------11--|--------------------|------------------------|
F|----------9-------9---|--------------------|------------5--4--2--0--|
A|----------------------|----------3----2----|--0---------5--4--2--0--|
D|----------------------|--------------------|-------3----------------|

D|---------------------|--------------------|--------------------|
G|---------------------|--------------------|--------------------|
C|-------7----9--------|------9-------------|--------------------|
F|--2----7----9--------|------9----7--------|--------------------|
A|--2----5----7--------|------7----7--------|----------0----1----|
D|---------------------|-----------5--------|--------------------|

D|------------------------|---------------------|--------------------|
G|------------------------|---------------------|--------------------|
C|------------------0--2--|--4----7----9--------|------9-------------|
F|-------1----2--4--------|-------7----9--------|------9----7--------|
A|--2---------------------|-------5----7--------|------7----7--------|
D|------------------------|---------------------|-----------5--------|

D|-------------------|-------------------|-----------|-------------------|------|
G|-------------------|-------------------|--5--------|-------------------|------|
C|----------4--------|--------------4----|--4--------|-------------------|------|
F|----------4--------|--------------4----|--2--------|--7----------------|------|
A|----------2--------|--------------2----|-----------|--7----------------|------|
D|-------------------|-------------------|-----------|--5----------------|------|

D|------|--x-------------------|-------------------|-------------------|
G|------|--x-------------------|-------------------|-------------------|
C|------|--x-------------------|-------------------|--5----------------|
F|------|--x-------------------|--7----------------|--5----------------|
A|------|--x-------------------|--7----------------|--3----------------|
D|------|--x----3/-----15/-----|--5----------------|-------------------|

D|-------------------|-------------------|-------------------|-------------------|
G|-------------------|-------------------|-------------------|-------------------|
C|-------------------|--7----------------|-------------------|--5----------------|
F|--5----------------|--7----------------|--7----------------|--5----------------|
A|--5----------------|--5----------------|--7----------------|--3----------------|
D|--3----------------|-------------------|--5----------------|-------------------|

D|-------------------|-------------------|-------------------------|
G|-------------------|-------------------|-------------------------|
C|-------------------|--7----------------|-------------------------|
F|--5----------------|--7----------------|--7-----7--5-------5--7--|
A|--5----------------|--5----------------|--7-----7--5-------5--7--|
D|--3----------------|-------------------|--5--5--5--3----3--3--5--|

D|------------------------|-------------------|----------------------------|
G|------------------------|-------------------|----------------------------|
C|------------------------|-------------------|----------------------------|
F|-------7--5-------5-----|--3----------------|----------------------------|
A|-------7--5-------5-----|--3----------------|----------------------------|
D|----5--5--3----3--3--1--|--1----------------|--1-1-1-1-1----1-1-1-1-1----|

D|--------------------|--------------------|--------------------|
G|--------------------|--------------------|--------------------|
C|--------------------|--------------------|--------------------|
F|--7--------2--------|--7--------2--------|--3--------5--------|
A|--7--------2--------|--7--------2--------|--3--------5--------|
D|--5--------0--------|--5--------0--------|--1--------3--------|

D|--------------------|--------------------|--------------------|
G|--------------------|--------------------|--------------------|
C|--------------------|--------------------|--------------------|
F|--7--------2--------|--7--------2--------|--7--------2--------|
A|--7--------2--------|--7--------2--------|--7--------2--------|
D|--5--------0--------|--5--------0--------|--5--------0--------|

D|--------------------|-----------------------|--------------------|
G|--------------------|-----------------------|--------------------|
C|--------------------|-----------------------|--4-----------------|
F|--3--------5--------|--7-----------5--------|--4--------4--------|
A|--3--------5--------|--7--------5-----------|--2--------4--------|
D|--1--------3--------|--5--7--8--------------|-----------2--------|

D|--------------------|--------------------|--------------------|
G|--------------------|--------------------|--------------------|
C|--4-----------------|--------------------|--4-----------------|
F|--4--------4--------|--5--------7--------|--4--------4--------|
A|--2--------4--------|--5--------7--------|--2--------4--------|
D|-----------2--------|--3--------5--------|-----------2--------|

D|--------------------|--------------------|--------------------|
G|--------------------|--------------------|--------------------|
C|--4-----------------|--4-----------------|--------------------|
F|--4--------4--------|--4--------4--------|--5--------7--------|
A|--2--------4--------|--2--------4--------|--5--------7--------|
D|-----------2--------|-----------2--------|--3--------5--------|

D|--------------------|-------------------------|------------------------|
G|--------------------|-------------------------|------------------------|
C|--4-----------------|-------------------------|------------------------|
F|--4--------4--------|--9-----9--7-------7--9--|-------9--7-------7-----|
A|--2--------4--------|--9-----9--7-------7--9--|-------9--7-------7-----|
D|-----------2--------|--7--7--7--5----5--5--7--|----7--7--5----5--5--3--|

D|-------------------|------------------|----------------------|
G|-------------------|------------------|----------------------|
C|-------------------|------------------|----------4--4--------|
F|--5----------------|------------------|----------4--4--------|
A|--5----------------|------------------|--2--2----2--2--------|
D|--3----------------|------------------|----------------------|

D|------------------|
G|------------------|
C|------------------|
F|------------------|
A|------------------|
D|------------------|

************************************

| x  Dead note
| /  Slide up
| h  Hammer-on

************************************
Suggest correction
comments
print report bad tab
8 comments total. Showing first comments.
+2 reply
billyof bodom71 135 Mar 10, 2007 01:30 PM

its a great tab, but you should put in the solo.

+1 reply
Ijantis 10 Aug 28, 2007 05:33 PM

nice tab keep up the good work

-1 reply
Dudeman5000 31 Sep 07, 2007 12:30 PM

I'm sure it's great, but it's too hard to read.

guest
You may want to rate the tab now too:
select rating
Wanna post a correction for this tab? Suggest correction