Oops, an error
Loading. Please wait.

Follow The Reaper Bass Tab

version 2
version 2

Whole song

Interactive

1,498 views 1 this week
no commentswrite comment
1 2 3 4 5
please rate
add to favorites
launch autoscroll
font size
0
reset
guitar tuner
Tab Pro tools
  • play this tab
  • loop segment
  • change instrument
  • show fretboard
  • metronome
×
Best way to learn
"Follow The Reaper"
Autoscroll
slow
fast
+/-
esc
set tempo
stop
Contributor
Difficulty
Tuning
intermediate
D G C F A D
Follow The Reaper
by Children of Bodom

5 String Bass
Whole step down (ADGCF)


After speaking Intro

F:----------------------------------------------------------------------|
C:----------------------------------------------------------------------|
G:--7------3--5--7-----3-5-8-7------3--5--7-----------------------------|
D:-------------------------------------------------------------5--3--0--|
A:----------------------------------------------3---5--3--1-------------|


F:------------------------------------------------------------------------|
C:------------------------------------------------------------------------|
G:-------------------7~-7-------------------5--7-5-3--5-3-5--7-5--------7-|
D:-00000000000000000------00000000000000000-----------------------3--2----|
A:------------------------------------------------------------------------|

F:------------------------------------------------------------|
C:------------------------------------------------------------|
G:------------------------------------------7--5--3--2--3-5---|
D:-000000000000000000000000000000000000000--------------------|
A:------------------------------------------------------------|

Verse

F:---------------------------------------------|
C:---------------------------------------------|
G:---------------------------------------------|
D:-0-000000000000000-0-00-0-0-00-0-0-00-6-6-6--|
A:---------------------------------------------|


F:---------------------------------------------------------------------|
C:------------------------------------------------------4h5p4~---------|
G:----------5-3-5555555------------------------555--7~----------7-5-7~-|
D:-0-00000--------------3-2-0-00-0-0-00-0-0-00-------------------------|
A:---------------------------------------------------------------------|

F:--------------------------------------------------------------------------|
C:--------------------------------------------------------------------------|
G:----------------------------7-7777777--5-3-5555555-757--------------------|
D:-0-00-0-0-00-0-0-00-6-6-6-------------------------------0000000-00-0-00-0-|
A:--------------------------------------------------------------------------|

F:-----------|
C:-----------|
G:-----------|
D:-3-2-0-----|
A:-----------|

Chorus

F:--------------------------------------------------------------------------|
C:--------------------------------------------------------------------------|
G:--------------------------3333----------------33---------3--5---3--5--7---|
D:--555533335555333355551111----3333555500113333--33--5--1------3-----------|
A:--------------------------------------------------------------------------|

Interlude

F:---------------------------------------------------------------------------|
C:---------------------------------------------------------------------------|
G:-4--2---2--4---2-----2--4--2--4----0-2-4---4-2---2--4-2---2--4-2---2-------|
D:------0----------0--------------4--------------0--------0--------0---------|
A:----------------------------------------------------------------------2-0~-|

F:-----------------------------------------|
C:----------5------------------5-----------|
G:-----7--5---5--7-5----5--7-5---5-7-------|
D:--7-----------------3---------------3--6-|
A:-----------------------------------------|

Repeat Verse x1

Bridge

F:----------------------------------------------/13~-|
C:-------------------------------------------8-------|
G:-5------3--1--5------0--3--5-----3--1--5-----------|
D:---------------------------------------------------|
A:---------------------------------------------------|

F:------------------------------------------------------------------|
C:------------------------------------------------------------------|
G:-555555555555-3-1-555555555555-0-3-555555555555--3-1--------------|
D:------------------------------------------------------------------|
A:-----------------------------------------------------333333333333-|

F:------------------------------------------------|
C:------------------------------------------------|
G:--0---------0--------------0~------3-5-7--3-5---|
D:-----3--1~----0-1-3~---1-3-----1----------------|
A:------------------------------------------------|

Chorus
                                                                     x2
F:-------------------------------------------------------------|------------|
C:-------------------------------------------------------------|------------|
G:--------------------------3333----------------33---------3--5|---3--5--7--|
D:--555533335555333355551111----3333555500113333--33--5--1-----|-3----------|
A:-------------------------------------------------------------|------------|

Keyboard/Guitar Solo

F:-------------------------------------------------|
C:-------------------------------------------------|
G:---------3-------------3-------------------------|
D:--5---3------3--5---3-----3--5--3--5---0--1-3-5--|
A:-------------------------------------------------|

Keyboard Solo

F:--------------------------------------------------|
C:--------------------------------------------------|
G:--4---2-0---2-4---2-----2-4---2-0---2-4-----7-0~--|
D:--------------------3-----------------------------|
A:--------------------------------------------------|

Guitar Solo

F:--------------------------------------------------------------------------|
C:------------------------------------------------------------------5-------|
G:--------5-3-333333-5-5-------3-3-5-55~--------5-3-333333-5-5--------55555-|
D:-0-0000-----------------0-00-----------0-0000----------------0-00---------|
A:--------------------------------------------------------------------------|

F:-----------------------|
C:-----------------------|
G:-----------------------|
D:-----------------------|
A:-5-3~---5-0~---1-3-5~--|

Interlude

F:--------------------------------------------|
C:--------------------------------------------|
G:--------5---5-----5----5----5----5----5---5-|
D:-----0----3----0----3----0----3----0----3---|
A:--------------------------------------------|

Outro
              x3
F:-------------|-------------|
C:-------------|-------------|
G:-------1~----|---------7---|
D:-3--1------1-|--3--0-------|
A:-------------|-------------|

END
comments
We did not receive enough feedback on this tab! Please rate:
print report bad tab
1 2 3 4 5
I want to post or [tab]
guest
You may want to rate the tab now too:
select rating
Please do not post tabs as comments. Select "correction" instead!