Oops, an error
Loading. Please wait.

Hate Me Tab

version 1
version 1
6,359 views 6 this week
no commentswrite comment
1 2 3 4 5
excellent!
x 1
add to favorites
launch autoscroll
font size
0
reset
how to read this tab
guitar tuner
Tab Pro tools
  • play this tab
  • loop segment
  • change instrument
  • show fretboard
  • metronome
Autoscroll
slow
fast
+/-
esc
set tempo
stop
Contributor
Difficulty
Tuning
Tabbers playing skills
advanced
D G C F A D
advanced +
#----------------------------------PLEASE NOTE---------------------------------#
#This file is the author's own work and represents their interpretation of the #
#song. You may only use this file for private study, scholarship, or research. #
#------------------------------------------------------------------------------#

                                      HATE ME!
                           As recorded by Children Of Bodom
                          (From the 2001 Album FOLLOW THE REAPER)
Transcribed by Cob666

Words and Music by Alexi Laiho
Arranged by Children Of Bodom
 
Gtr I (D G C F A D) - 'Alexi Laiho'
Gtr II (D G C F A D) - 'Alexander'
Gtr IV (D G C F A D) - 'Alexi Laiho'

I have two versions of the beginning solo and 
one version of the second solo.  The first solo 
is the one he plays in the album and the second
version of it is the one he plays live.

 1st Solo - 2:05   
|--------------------------------------------------|
|--------------------------------------------------|
|--------------------------------------------------|
|--------------------------------------------------|
|--2-----2-----------------------------------------|
|--0-----0-----------------------------------------|

 Gtr IV
|--------------------------------------------------|
|-15-12----12-15-12-15-12----12-15-12-15-12----12--|
|-------15----------------15----------------15-----|
|--------------------------------------------------|
|--------------------------------------------------|
|--------------------------------------------------|


|--------------------------------------------------|
|-17-12-15-12----12-17-12-15-12------x-15b18==(15)-|
|-------------15----------------15-x---------------|
|--------------------------------------------------|
|--------------------------------------------------|
|--------------------------------------------------|


                  \2.25
    
|---------------------------|--------------------|
|---------------------------|--------------------|
|-------------7--(7)--------|--------------------|
|-------------5--(5)--------|--------------------|
|---2---2-----7--(7)--------|--------------------|
|---0---0-------------------|--------------------|

                                
|---------------------------|---------22-(22)----|
|-(15)r12-15-12\------------|---22b24------------|
|---------------------------|--------------------|
|---------------------------|--------------------|
|---------------------------|--------------------|
|---------------------------|--------------------|


  
  Gtr IV
   
|-------------------------------------------------|
|----------12-14-15-14-12-14-12----------------12-|
|-12-14-15----------------------15-14-12-14-15----|
|-------------------------------------------------|
|-------------------------------------------------|
|-------------------------------------------------|

 Gtrs I, II 
|-------------------------------------------------|
|-------------------------------------------------|
|-------------------------------------------------|
|-------------------------------------------------|
|--2-----2----------------------------------------|
|--0-----0----------------------------------------|

|-------------------------------------------------|
|-14-15-14-12-14-12----------------12-14-15-14-12-|
|-------------------15-14-12-14-15----------------|
|-------------------------------------------------|
|-------------------------------------------------|
|-------------------------------------------------|

|-----------------------|----12-(12)\--------------------|
|-12--------------------|----12-(12)\------------10-12\--|
|-12--------------12----|------------------11-12---------|
|----14---14---14----14-|-14----------9-10---------------|
|-----------------------|--------------------------------|
|-----------------------|--------------------------------|

 Gtrs I, II
|-----------------------|--------------------------------|
|-----------------------|--------------------------------|
|-----------------------|----------------------9-11-12\--|
|--9---------------9----|-------------9-10-12------------|
|--7---------------7----|--------------------------------|
|-----0----0----0-----0-|-----0--------------------------|

Second Version-
 
--15-14-12-15-14-12-------------------------------|
--------------------15-14-12-15-14-12-14-12-------|
--------------------------------------------15-14-|
--------------------------------------------------|
--------------------------------------------------|
--------------------------------------------------|


         PM PM       PM PM     PM PM PM PM                                        
-----------------------------------------------|-------------------------------|
--------------12----------12--------------12\--|--L----------------------------|
--12-15-14-12----15-14-12-12--------------12\--|--L----------------------------|
------------------------------14-14-14-14------|-------12----------------------|
-----------------------------------------------|-----------14--13--12--14--13--|
-----------------------------------------------|-------------------------------|


        
-------------------------------|
---------------------15pb------|
-------------------------------|
-------------------------------|
--12----------15b--------------|
------15--14-------------------|


  
--15h-19p-15----------15h-18p-15----------15h-19p-15----|
-------------17----17------------17----17------------17-|
----------------16------------------16------------------|
--------------------------------------------------------|
--------------------------------------------------------|
--------------------------------------------------------|


                                              PM     PM     PM      PM     
    
--------15h-18p-15--------17brb--------|-----------------------------------|
-----17------------17---x--------------|--12--------------------12---------|
--16------------------x----------------|--12--------------------12---------|
---------------------------------------|------14-----14-----14------14-----|
---------------------------------------|-----------------------------------|
---------------------------------------|-----------------------------------|


   PM     PM                                                           
      
-----------------------------------|
---------------------------12S---0-|
--------------------9--11----------|
--14-----14--9--12-----------------|
-----------------------------------|
-----------------------------------|


2nd Solo - 3:37

       PM                                                                 
--17--------------15----------15--|--14------12--15--12s-14-17--14------|
----------13--15------13--15------|------15-------------------------17--|
------14--------------------------|-------------------------------------|
----------------------------------|-------------------------------------|
----------------------------------|-------------------------------------|
----------------------------------|-------------------------------------|

 While bending the 17th fret you     \1/  
 tap the 20th and 22th    
--17b----20pb--17pb--22pb--17pbr--L--15--|--L--17--------------------------|
-----------------------------------------|---------17----------------------|
-----------------------------------------|-------------15--14--15----------|
-----------------------------------------|-------------------------17--14--|
-----------------------------------------|---------------------------------|
-----------------------------------------|---------------------------------|
 
----------------------------------|
----------------------------------|
----------14--17------19--17------|
------16----------17----------17--|
--17------------------------------|
----------------------------------|
Regular guitar - 
--------------------------------------------------|
-----------------------------------------13-15-17-|
-----------------11-12-14-16-14-12-14-16----------|
--14-12-10-12-14----------------------------------|
--------------------------------------------------|
--------------------------------------------------|
Harmony guitar - 
--------------------------------------------------|
-----------------------------------------17-19-20-|
-----------------14-16-17-19-17-16-17-19----------|
--17-16-14-16-17----------------------------------|
--------------------------------------------------|
--------------------------------------------------|

Regular guitar - 
-----------------15-17-19-20-19-17----------------|
--19-17-15-17-19-------------------20-19-17-------|
--------------------------------------------19-17-|
--------------------------------------------------|
--------------------------------------------------|
--------------------------------------------------|
Harmony guitar -  
-----------------19-20-22-24-22-20----------------|
--22-20-19-20-22-------------------24-22-20-------|
--------------------------------------------23-21-|
--------------------------------------------------|
--------------------------------------------------|
--------------------------------------------------|
                                                                      
Regular guitar -      
------------------------------------|
--------------------------17\--L----|
--16------------------16------------|
-----19-17-16-----17----------------|
--------------19--------------------|
------------------------------------|
Harmony guitar - 
------------------------------------|
--------------------------20\--L----|
--19------------------21------------|
-----22-21-19-----21----------------|
--------------22--------------------|
------------------------------------|

--24----------22----------24--------|
------22--20------20--22------<>20--|
------------------------------------|
------------------------------------|
------------------------------------|
------------------------------------| 

------15----------10----------15--|
--13------13s--8------8s--13------|
----------------------------------|
----------------------------------|
----------------------------------|
----------------------------------|

  7   7   7    7   7   7   7                              
--14--15--17S--19--15--17--19S--20-17-19-20-19-17-------|
--------------------------------------------------20-19-|
--------------------------------------------------------|
--------------------------------------------------------|
--------------------------------------------------------|
--------------------------------------------------------|
  
--------------------------------------------------|
--17-20-19-17-------------------------------------|
--------------19-17-16-19-17-16-------------------|
--------------------------------19-17-16-19-17-16-|
--------------------------------------------------|
--------------------------------------------------|
  
--------------12h-15p-12----------------12h-15p-12h-15-|
-----------13------------13----------13----------------|
--------12------------------12----12-------------------|
-----14------------------------14----------------------|
--15---------------------------------------------------|
-------------------------------------------------------|

 
--20p-15p-12h-15-24p-15p-12h-15-20p-15p-12h-15-24p-15p-12h-15-|
--------------------------------------------------------------|
--------------------------------------------------------------|
--------------------------------------------------------------|
--------------------------------------------------------------|
--------------------------------------------------------------|


   |---6--|   |---6---|  |---6--|   |---6---|  |---6--|   |---6---|  |---6--|   
        
--20p-19-20p-19p-17p-15-----------------------20p-19-20p-19p-17p-15-------------
------------------------20p-19-20p-19p-17p-15-----------------------20p-19-20p-19-17-15
--------------------------------------------------------------------------------
--------------------------------------------------------------------------------
--------------------------------------------------------------------------------
--------------------------------------------------------------------------------


                                              \0/    \1/                     
   |---6--|   |---6---|  |---6--|   |---6---|                                
                      
----------------------------------------------------------|-----------|-----|
----------------------------------------------0----<>5----|--L--------|-----|
--21p-19-21p-19p-17p-16-24p-19-24p-19p-17p-16-------------|-----------|-----|
----------------------------------------------------------|-----------|-----|
----------------------------------------------------------|-----------|-----|
----------------------------------------------------------|-----------|-----|


  
comments
We did not receive enough feedback on this tab! Please rate:
print report bad tab
1 2 3 4 5
I want to post or [tab]
guest
You may want to rate the tab now too:
select rating
Please do not post tabs as comments. Select "correction" instead!