Oops, an error
Loading. Please wait.

Hate Me Bass Tab

version 2
version 2
5,450 views 1 this week
2 commentsread comments
1 2 3 4 5
1 last vote to show rating
add to favorites
launch autoscroll
font size
0
reset
guitar tuner
Autoscroll
slow
fast
+/-
esc
set tempo
stop
Help us to improve Ultimate-Guitar.com Take our survey!
×
Author
Difficulty
intermediate
Band: Children Of Bodom
Album: Follow The Reaper
Song: hate Me!
Tuning 4-string: D G C F tune down 1 step
Tabbed By: ClosedRoad

Intro Part I
F ------------------------------------|
C ------------------------------------|
G -------7/2----7------7--------7910--|
D -00-00-----00--0-0-0--0-0-7810------|

Part II
F -------------------------------------------|
C -------------------------------------------|
G -7777-5553-3333-5525-7777-333--------------|
D ------------------------------33-33322222--|

F ------------------------------------------|
C -------------------------------5555-53----|
G -7777-5553-3333-5525-7777-5555--------53--|
D ------------------------------------------|

F -------------------------------------------|
C -------------------------------------------|
G -7777-5553-3333-5525-7777-333--------------|
D ------------------------------33-33322222--|

F ------------------------------------|
C ------------------------------------|
G -7777-5555-3333-5555-77773332----5--|
D -----------------------------00-0---|

verse I
F -------------------------------------------|
C -----------------------------------101010--|
G ---------------66--------------------------|
D -00000000000000---000000000000000----------|

II
F --------------------------------------|
C -------976---------7------------------|
G -777h9----7-5-55-55-55-3-33-333333----|
D ----------------------------------32--|

III
F -----------------------------------------|
C ---------------------------------101010--|
G ---------------66------------------------|
D -00000000000000--0-00000000000000--------|

IIII
F --------------------------------------|
C ------------------7-------------------|
G -7-77-7777-5-55-55-55-3-33-333333333--|
D --------------------------------------|

Chorus
F --------------------------------------------|
C --------------------------------------------|
G -0-03-32-------------0-03---2---------------|
D --------00000000000----------000000-000000--|

Verse I
Verse II
Verse III
Verse II !!
Chorus

Bridge I
F -------------------------------------------|
C -----------------------------------235532--|
G -1-3-5-5-5555----11-11-5555----555---------|
D -------------33------------5555------------|

F ---------------------------------2/-1414--|
C --------------------030303030303----------|
G -55-5555--111-0303------------------------|
D --------33--------------------------------|

F ------------------------------------------|
C -------------------------------3333-------|
G -5555-0000------3333-5555-0000------3333--| 2x
D -----------1111---------------------------|

F --------------------------------------------------------------|
C ------------------------------555-----------------------------|
G -7777----------5-555-7777---------5-555-7777------------xxxx--|
D -----7777-1111-----------7-777--------------7-7777-1111-------|

Fast Bass Riff (I think this is it)
F ----------16-19-16--------------------------------|
C ----17-19----------20-19-18-17--------------------|
G -19----------------------------19-17--------------|
D -------------------------------------19-18-17-15--|

Intro Part I
      Part II (only first two riffs)
verse I
      II
      III
      II !!
Chorus 2x

Bridge II
F -------------------------------|
C -------------------------------|
G -------111----------------765--|
D -0000-----0r---00765----00-----|

F -------------------------------------------------------------------|
C -------------------------------------------------------------------|
G -------------------------------------------------------------------|
D -00000--000000000000--0000000000000-00000000000000-00000000000000--|

F ----------------------------------------------|
C ----------------------------------------------|
G ----------------------------------------------|
D -00000000000000-000000000000--32-111--32-111--|

Chorus 2x
Bridge I Instead of the xxxx play 5's

End
F -----------------------------------------------------|
C -----------------------------------------------------|
G -----------------------------------------------------|
D -220-220-0000-220-220-0000-220--220-000000000-00000--|

That's I think there are a couple of foulds in this tab but it's close
to the real one
have Fun
Greetings ClosedRoad
Suggest correction
Give kudos to tab author, rate the tab!
1 2 3 4 5
comments
print report bad tab
2 comments total.
0 reply
thebassist53 10 Jul 11, 2007 04:47 PM

on the tab you said the low string is tuned to D. shouldnt it be C ?

0 reply
TrU MaGgOt 666 50 Jul 17, 2009 12:04 PM

no. im not 100% but if i remember right. theyre in dstandard (dgcf) and then for ''are you dead yet'' (the album) they tuned down to drop c (cgcf)

guest
You may want to rate the tab now too:
select rating
Wanna post a correction for this tab? Suggest correction