Oops, an error
Loading. Please wait.

Hate Me Tab

version 2
version 2
20,103 views 36 this week
18 commentsread comments
1 2 3 4 5
x 8
add to favorites
launch autoscroll
font size
0
reset
how to read this tab
guitar tuner
Autoscroll
slow
fast
+/-
esc
set tempo
stop
Help us to improve Ultimate-Guitar.com Take our survey!
×
Author
Tune down one whole step
4/4 time, 188 bpm

[Intro]
(drums & keys)
(Guitar 1)                                        w/bar
e|--------|--------|--------------|--------------|----------------------------------|
B|--------|--------|-----------a5-|--------------|-----\-------/\-------------------|
G|--------|--------|-----------a5-|--------------|-----\-------/\-------------------|
D|--------|--------|--------------|--------------|----------------------------------|
A|--------|--------|--------------|--------------|------------------------------x-x-|
E|--------|--------|--------------|--------------|------------------------------x-x-|

(Guitar 2)
e|--------|--------|--------------|--------------|----------------------------------|
B|--------|--------|--------------|--------------|----------------------------------|
G|--------|--------|--------------|--------------|----------------------------------|
D|--------|--------|--------------|--------------|----------------------------------|
A|--------|--------|--------------|--------------|----------------------------------|
E|--------|--------|--------------|--------------|----------------------------------|

                                                                5/4 time (this bar only)
e|----------------------------------|-------------------------|----------------------------------|
B|----------------------------------|-------------------------|----------------------------------|
G|----------------------------------|-------------------------|----------------------9--11-12~---|
D|----------------------------------|-9-----------------9-----|-------------9--10-12-------------|
A|-x-x-x-x-x---------------/-x \----|-7-----------------7-----|----------------------------------|
E|-x-x-x-x-x------------------------|----0-----0-----0-----0--|----0-----0-----------------------|


e|----------------------------------|-------------------------|----------------------------------|
B|----------------------------------|-------------------------|----------------------------------|
G|----------------------------------|-------------------------|----------------------------------|
D|----------------------------------|-9-----------------9-----|----------------------2--4--5-----|
A|----------------------------------|-7-----------------7-----|-------------2--3--5--------------|
E|----------------------------------|-0--0-----0-----0--0--0--|----0-----0-----------------------|

(Both guitars)
    Rhy.Fig.1                  (end Rhy.Fig.1 on repeat)
e|--------------------------|-------------------------|-------------------------|
B|--------------------------|-------------------------|-------------------------|
G|o-------------------------|-------------------------|-------------------------|
D|o-9--9--9--9--7--7--7--5--|----5--5--5--7--7--7--7--|-9--9--9--9--------------|
A|--7--7--7--7--5--5--5--3--|----3--3--3--5--5--5--5--|-7--7--7--7--9--9--9--5--|
E|--------------------------|-------------------------|-------------7--7--7--3--|

   1.                          2.
(Guitar 1)
e|--------------------------|-------------------------|
B|--------------------------|-------------------------|
G|-------------------------o|-------------------------|
D|----------------------9--o|-------------------------|
A|----5--5--5--4--4--4--7---|----5--5--5--4--4--4--4--|
E|----3--3--3--2--2--2------|----3--3--3--2--2--2--2--|
               m  m  m               m  m  m  m  m  m

e|--------------------------|-------------------------|
B|--------------------------|-------------a5----a7----|
G|-------------------------o|-------a7-a5----a5----a7-|
D|----------------------9--o|----a7-------------------|
A|----5--5--5--4--4--4--7---|-------------------------|
E|----3--3--3--2--2--2------|-------------------------|
              m  m  m

    Gtr.1 plays Rhy.Fig.1 (6 bars)
    Gtr.2 Lead Fig.1  .  .  .  .  .  .  .  .  .  .  .  .  .  .  .  .  .  .  |
                                                               (play 3 times)
e|--12--15--14--12---------------------|----------------------------------|
B|------------------15--12----(15)/17--|-----17--15--12----------15--17---|
G|o-------------------------14---------|-----------------14--12----------o|
D|o------------------------------------|---------------------------------o|
A|-------------------------------------|----------------------------------|
E|-------------------------------------|----------------------------------|

e|----------------------------------|--------------------------------------------|
B|----------------------------------|--------------------------------------------|
G|----------------------------------|--------------------------------------------|
D|-9---9---9---9---4---4------------|-2-----2---------------2----2---------------|
A|-7---7---7---7---2---2---5---4----|-2-----2---------------2----2------------2--|
E|-------------------------3---2----|-0-----0---------------0----0------------0--|
                           m   m

e|-12--15--14--12-------------------|----------------------12-----12-------------|
B|-----------------15--12-----------|---------------------(15)b17(15)b17---------|
G|-------------------------12--11---|-(14)b16r14b16------------------------------|
D|----------------------------------|--------------------------------------------|
A|----------------------------------|--------------------------------------------|
E|----------------------------------|--------------------------------------------|

[Verse 1]
Rhy. Fig. 2 (both guitars)
e|----------------------------------|-------------------------|---------------------------------|
B|----------------------------------|-------------------------|---------------------------------|
G|o---------------------------------|-------------------------|---------------------------------|
D|o---------------------------------|-------------------------|---------------------------------|
A|----------------------------------|----------------6--6--2--|---------------------------------|
E|------0---0---0---0-0-0---0---0---|-0--0--0--0--0--------0--|-----0---0---0---0-0-0---0---0---|
|       m   m   m   m m m   m   m     m  m  m  m  m                 m   m   m   m m m   m   m

e|----------------------------------|-------------------------|---------------------------------|
B|----------------------------------|-------------------------|---------------------------------|
G|o---------------------------------|-------------------------|---------------------------------|
D|o---------------------------------|----------------4--4-----|---------------------------------|
A|----------------------------------|----------------------2--|---------------------------------|
E|------0---0---0---0-0-0---0---0---|-0--0--0--0--0--------0--|-----0---0---0---0-0-0---0---0---|
        m   m   m   m m m   m   m     m  m  m  m  m                 m   m   m   m m m   m   m


e|-------------------------|-------------------------|-------------------------|
B|-------------------------|-------------------------|-------------------------|
G|-------------8-----8-----|-------------------------|-------------------------|
D|----------------5-----5--|----x--5--x--7--5--x--4--|----x--4--x--5--4--x--4--|
A|-------------------------|-------------------------|-------------------------|
E|-0--0--0--0--------------|-------------------------|-------------------------|
 | m  m  m  m

e|-------------------------|-------------------------|-------------------------|
B|-------------------------|-------------------------|-------------------------|
G|-------------------------|-------------------------|-------------------------|
D|-------------10-10-10-9--|-------9-----9--------7--|-------7-----7--------5--|
A|----------------------7--|----7--7--7--7--7--7--5--|----5--5--5--5--5--5--3--|
E|-0--0--0--0--------------|-------------------------|-------------------------|
  m  m  m  m                   m     m     m  m          m     m     m  m

                             1.                          2.        (end Rhy.Fig.2)
e|-------------------------|--------------------------|-------------------------|
B|-------------------------|--------------------------|-------------------------|
G|-------------------------|-------------------------o|----------5a~------------|
D|----x--2--x--2--0--x--2--|----------5-----4-----2--o|-------------------------|
A|-------------------------|----3--3--5-----5-----2---|----3--3-----------------|
E|-------------------------|--------------------------|-------------------------|
|                              m  m                        m  m  a.h.
|
e|-------------------------|--------------------------|-------------------------|
B|-------------------------|--------------------------|-------------------------|
G|-------------------------|----------7-----7-----4--o|----------2a~------------|
D|-------------------------|----------5-----4-----2--o|-------------------------|
A|-------3--3--3--3--3--3--|-3--3--3------------------|----3--3-----------------|
E|-------------------------|--------------------------|-------------------------|
        m  m  m  m  m  m    m  m  m                        m  m  a.h.

[Pre-Chorus]
Rhy.Fig.3 (both guitars)
e|-----------------------|--------------------|------------------------|-------------------------|
B|-----------------------|--------------------|------------------------|-------------------------|
G|-----------------------|--------------------|------------------------|-------------------------|
D|-2-------5-------------|--------------------|-5-----4--9-------------|-------------------------|
A|-0-------3-------------|--------------------|-3-----2--7-------------|-------------------------|
E|-----------------------|--------------------|------------------------|-0--0--0--0--0--0--0--0--|
 |                                                                       m  m  m  m  m  m  m  m

e|-----------------------|--------------------|------------------------|-------------------------|
B|-----------------------|--------------------|------------------------|-------------------------|
G|-----------------------|--------------------|------------------------|-------------------------|
D|-2-------5-------------|--------------------|-5-----4--2-------------|-------------------------|
A|-0-------3-------------|--------------------|-3-----2--2-------------|-------------------------|
E|------0----------------|--------------------|----------0-------------|-0--0--0--0--0--0--0--0--|
       m                                                                m  m  m  m  m  m  m  m

                                                                             (end Rhy.Fig.3) 
e|-----------------------|--------------------|-------------------------|-------------------------|
B|-----------------------|--------------------|-------------------------|-------------------------|
G|-----------------------|--------------------|-------------------------|-------------------------|
D|-2-------5-------------|---------------4----|-------------------------|-------------------------|
A|-0-------3-------------|---------------2----|-------------------------|----------------------2--|
E|-----------------------|--------------------|-0--0--0--0--0-----0--0--|-0--0--0--------------0--|
 |                                              m  m  m  m  m     m  m    m  m  m

e|-----------------------|--------------------|-------------------------|-------------------------|
B|-----------------------|--------------------|-------------------------|-------------------------|
G|-----------------------|--------------------|-------------------------|-------------------------|
D|-2-------5-------------|---------------4----|-------------------------|-------------------------|
A|-0-------3-------------|---------------2----|-------------------------|----------------------2--|
E|------0----------------|--------------------|-0--0--0--0--0-----0--0--|-0--0--0--------------0--|
       m                                       m  m  m  m  m     m  m    m  m  m

[Verse 2]                   [Pre-Chorus]               2/4 time (this bar only)
  w/Rhy.Fig.2                w/Rhy.Fig.3              Rhy.Fill 1 (both guitars)
e|-------------------------|-------------------------|--------------|
B|-------------------------|-------------------------|--------------|
G|--------(16-bars)--------|--------(8-bars)---------|--------------|
D|-------------------------|-------------------------|-7-----10-----|
A|-------------------------|-------------------------|-8-----7------|
E|-------------------------|-------------------------|--------------|

[Chorus]
   Rhy.Figs.4 (both guitars)                                              1.
e|---------------------|---------------------|-------------------------|-------------------------|
B|---------------------|---------------------|-------------------------|-------------------------|
G|o-7------------------|-7---------7---------|-------------------------|------------------------o|
D|o-7------------------|-5---------8---------|-3--0--3--0--------------|-3--0--3--0-------------o|
A|--5------------------|-5-------------------|-------------3--0--3--0--|-------------3--0--3--0--|
E|---------------------|---------------------|-------------------------|-------------------------|

e|---------------------|---------------------|-------------------------|-------------------------|
B|---------------------|---------------------|-------------------------|-------------------------|
G|o--------------------|---------------------|-------------------------|------------------------o|
D|o-7------------------|---------------------|-0--3--0--3--------------|-0--3--0--3-------------o|
A|--5------------------|-5---------8---------|-------------0--3--0--3--|-------------0--3--0--3--|
E|---------------------|-3---------6---------|-------------------------|-------------------------|

   2.                              dive w/bar                  (end Rhy.Figs.4)
e|-------------------------|-------------------------|-------------------------|
B|-------------------------|-------------------------|-------------------------|
G|-------------------------|-2---------\-------------|----\--------------------|
D|-3--0--3--0--3--0--3--0--|-------------------------|-------------------------|
A|-------------------------|-------------------------|-------------------------|
E|-------------------------|-------------------------|-------------------------|

e|-------------------------|-------------------------|-------------------------|
B|-------------------------|-------------------------|-------------------------|
G|-------------------------|-------------------------|-------------------------|
D|-0--3--0--3--------------|-2-----------------------|-------------------------|
A|-------------1--5--1--5--|-0-----------------------|-----/-x-\---------------|
E|-------------------------|-------------------------|-------------------------|

    Rhy.Figs.5  .  .  .  .  .  .  .  .  .  .  .  .  .   |
                                            (play 4 times)
e|--------------------------|--------------------------|
B|--------------------------|--------------------------|
G|o-10-7--10-7--9--5--9--5--|-14-10-14-10-12-9--12-9--o|
D|o-------------------------|-------------------------o|
A|--------------------------|--------------------------|
E|--------------------------|--------------------------|

                            *=on 2nd and 4th rep. play "10" instead
e|--------------------------|--------------------------|
B|--------------------------|----13----13----13----13--|
G|o-7--10-7--10----9-----9--|-10----10----9*----9-----o|
D|o-------------7-----7-----|-------------------------o|
A|--------------------------|--------------------------|
E|--------------------------|--------------------------|

    Rhy.Figs.6  .  .  .  .  .  .  .  .  .  .  .  .  .   |
                                            play 4 times
e|--------------------------|--------------------------|
B|--------------------------|--------------------------|
G|o-12-9--12-9--11-7--11-7--|-16-12-16-12-14-11-14-11-o|
D|o-------------------------|-------------------------o|
A|--------------------------|--------------------------|
E|--------------------------|--------------------------|

 |                           *=on 2nd and 4th rep. play "12" instead
e|--------------------------|--------------------------|
B|--------------------------|----15----15----15----15--|
G|o-9--12-9--12----11----11-|-12----12----11*---11----o|
D|o-------------9-----9-----|-------------------------o|
A|--------------------------|--------------------------|
E|--------------------------|--------------------------|


e|--------------------------|--------------------------|
B|--------------------------|--------------------------|
G|o-------------------------|-------------------------o|
D|o-9--9--9--9--4--4--4--4--|-12-12-12-12-7--7--7--7--o|
A|--7--7--7--7--2--2--2--2--|-10-10-10-10-5--5--5--5---|
E|--------------------------|--------------------------|

[Guitar Break] 
(w/wah)
   1           2           3           4             1           2           3           4
e|-------------------------------------------------|-------------------------------------------------|
B|-15-12----12-15-12-15-12----12-15-12-15-12----12-|-17-12-15-12----12-17-12-15-12----12-(15)b17-r---|
G|-------15----------------15----------------15----|-------------15----------------15----------------|
D|-------------------------------------------------|-------------------------------------------------|
A|-------------------------------------------------|-------------------------------------------------|
E|-------------------------------------------------|-------------------------------------------------|

e|-------------------------------------------------|-------------------------------------------------|
B|-------------------------------------------------|-------------------------------------------------|
G|-------------------------------------------------|-------------------------------------------------|
D|-------------------------------------------------|-------------------------------------------------|
A|-2-----2-----------------------------------------|-------------------------------------------------|
E|-0-----0-----------------------------------------|-------------------------------------------------|
  m     m

      drops w/bar
e|-------------------------------------------------|-------------22-------------------------\--------|
B|-15-v-p12-v-h17-v-p12-v-h15-v-p12-v-h17-v-p12-v--|h17---/24----------------------------------------|
G|-------------------------------------------------|-------------------------------------------------|
D|-------------------------------------------------|-------------------------------------------------|
A|-------------------------------------------------|-------------------------------------------------|
E|-------------------------------------------------|-------------------------------------------------|

                   long slide
e|-------------------------------------------------|-------------------------------------------------|
B|-------------------------------------------------|-------------------------------------------------|
G|-------------12-\--\-----------------------------|-------------------------------------------------|
D|-------------12-\--\-----------------------------|-------------------------------------------------|
A|-2-----------10-\--\-----------------------------|-------------------------------------------------|
E|-0-----0-----------------------------------------|-------------------------------------------------|
  m     m

   1           2           3           4             1           2           3           4
e|-------------------------------------------------|-------------------------------------------------|
B|-------12-14-15-14-12-14-12----------------12-14-|-15-14-12-14-12----------------12-14-15-15-14----|
G|-14-15----------------------15-14-12-14-15-------|----------------15-14-12-14-15-------------------|
D|-------------------------------------------------|-------------------------------------------------|
A|-------------------------------------------------|-------------------------------------------------|
E|-------------------------------------------------|-------------------------------------------------|

e|-------------------------------------------------|-------------------------------------------------|
B|-------------------------------------------------|-------------------------------------------------|
G|-------------------------------------------------|-------------------------------------------------|
D|-------------------------------------------------|-------------------------------------------------|
A|-2-----2-----------------------------------------|-------------------------------------------------|
E|-0-----0-----------------------------------------|-------------------------------------------------|
   m     m

e|----------12--\----------|----12-\--------------------------|
B|-12-x-----12--\----12-x--|----12-\--------------------------|
G|-12-x-----12--\----12-x--|----12-\--------------9--11-12~---|
D|-------------------------|-------------9--10-12-------------|
A|-------------------------|----------------------------------|
E|-------------------------|----------------------------------|

e|-------------------------|----------------------------------|
B|-------------------------|----------------------------------|
G|-------------------------|----------------------------------|
D|-9-----------------9-----|----------------------2--4--5-----|
A|-7-----------------7-----|-------------2--3--5--------------|
E|-0--0-----0-----0--0--0--|----0-----0-----------------------|

[Interlude]
  Gtr.1 plays Rhy.Fig.1
  Gtr.2 plays Lead Fig.1 (3 times)
e|--------------------------------------------------|
B|--------------------------------------------------|
G|--------------------(6-bars)----------------------|
D|--------------------------------------------------|
A|--------------------------------------------------|
E|--------------------------------------------------|

e|----------------------------------|----------------------------------|
B|----------------------------------|----------------------------------|
G|----------------------------------|----------------------------------|
D|-9---9---9---9---4---4---4--------|----------------------------------|
A|-7---7---7---7---2---2---2---5----|-----5---5---5---4---4---4---2----|
E|-----------------------------3----|-----3---3---3---2---2---2---0----|

 |                                            m   m   m   m   m
|                                        dips w/bar            dive w/bar
e|-12--15--14--12--------------15---|-----v---v---v---v---v---v-----\--|
B|-----------------15--12-----------|----------------------------------|
G|-------------------------14-------|----------------------------------|
D|----------------------------------|----------------------------------|
A|----------------------------------|----------------------------------|
E|----------------------------------|----------------------------------|

[Verse 3]                   [Pre-Chorus]
  w/Rhy.Fig.2                w/ 7 first bars of Rhy.Fig.3
  Gtr.1 plays Rhy.Fill 2 instead of the last bar of Rhy.Fig.2
e|-------------------------|-------------------------|
B|-------------------------|-------------------------|
G|--------(16-bars)--------|--------(7-bars)---------|
D|-------------------------|-------------------------|
A|-------------------------|-------------------------|
E|-------------------------|-------------------------|

    Rhy.Fill 2
e|-------------------------|
B|-------------a5----a7----|
G|-------a7-a5----a5----a7-|
D|----a7-------------------|
A|-------------------------|
E|-------------------------|

                              Half time feel
(Both guitars)
e|-------------------------|-------------|-------------|-------------|-------------|
B|-------------------------|-------------|-------------|-------------|-------------|
G|-------------------------|-------------|-------------|-------------|-------------|
D|-------------------------|-2-----------|-------------|-------------|----3--3--3--|
A|-------------------------|-2-----------|-------------|-------------|----1--1--1--|
E|-0--0--0-----0--0--0--0--|-0-----------|-------------|-------------|-------------|
                                                              heavy mute  m  m  m

e|-------------|-------------|-------------|-------------------------|
B|-------------|-------------|-------------|-------------------------|
G|-------------|-------------|-------------|-------------------------|
D|-2-----------|-------------|-------------|-------9-----8-----7-----|
A|-2-----------|-------------|-------------|-------7-----6-----5-----|
E|-0-----------|-------------|-------------|-0--0--7-----6-----5-----|
                                             m  m

e|-------------|-------------|-------------|-------------------------|
B|-------------|-------------|-------------|-------------------------|
G|-------------|-------------|-------------|-------------------------|
D|-2-----------|-------------|-------------|-------6-----5-----4-----|
A|-2-----------|-------------|-------------|-------7-----6-----5-----|
E|-0-----------|-------------|-------------|-0--0--------------------|

                                            m  m
    dive w/bar                            pick without raising bar  .  .  .  .  |
e|-------------------|-------------------|-------------------|-------------------|
B|-------------------|-------------------|-------------------|-------------------|
G|-------------------|-------------------|-------------------|-------------------|
D|-------------------|-------------------|-------------------|------3---3---3----|
A|-2-----------------|-------------------|-------------------|------1---1---1----|
E|-0---------\-------|--------\----------|-0------\----------|-------------------|
                                                                    m   m   m

e|-------------------|-------------------|-------------------|-------------------|
B|-------------------|-------------------|-------------------|-------------------|
G|-------------------|-------------------|-------------------|-------------------|
D|-2-----------------|-------------------|-------------------|------3---3---3----|
A|-2-----------------|-------------------|-------------------|------1---1---1----|
E|-0-----------------|-------------------|-------------------|-------------------|

        w/ bar                  depress the bar before picking and raise it as high as possible
e|-------------------|-------------------|-------------------|-------------------|
B|-------------------|-------------------|-------------------|-------------------|
G|-------------------|-a5---\------------|-(\)a6--/----/-----|-/-----------------|
D|-------------------|-------------------|-------------------|--------x-\--------|
A|-------------------|-------------------|-------------------|-------------------|
E|-0---\------\------|-------------------|-------------------|-------------------|

 |                                         pick slide
e|-------------------|-------------------|-------------------|-------------------|
B|-------------------|-------------------|-------------------|-------------------|
G|-------------------|-------------------|-------------------|-------------------|
D|-2-----------------|-------------------|-------------------|-------------------|
A|-2-----------------|-------------------|-x-\------\--------|-------------------|
E|-0-----------------|-------------------|-x-\------\--------|----------/-x-\----|

   Rhy.Fig.7
e|-------------------------|-------------------------|-------------------------|
B|-------------------------|-------------------------|-------------------------|
G|-9--9--------12-12-------|-7--7--------9--9--9--9--|-------12-12-------7--7--|
D|-9--9--------12-12-------|-7--7--------9--9--9--9--|-------12-12-------7--7--|
A|-------------------------|-------------------------|-------------------------|
E|-------------------------|-------------------------|-------------------------|

 | Rhy.Fig.7a .  .  .  .  .  .  .  .  .  .  .  .  .  |
                                        ( sixtuplet  )w/ Rhy.Fig.7a (3 times)
e|-------------------------|-------------------------|-------------------------|
B|-------------------------|-------------------------|-------------------------|
G|-------------------------|-------------------------|-------------------------|
D|-------------------------|-------------------------|-------------------------|
A|-------------------------|-------------------------|-------------------------|
E|-0--0--0-----------0--0--|-0--0--0--0--0-0-0-0-0-0-|-------------------------|
  m  m  m           m  m    m  m  m  m  m m m m m m

e|-------------------------|-------------------------|-------------------------|
B|-------------------------|-------------------------|-------------------------|
G|-------12-12-------9--9--|-9--9--------5--5--------|-7--7--------10-10-10-9--|
D|-------12-12-------9--9--|-9--9--------5--5--------|-7--7--------10-10-10-9--|
A|-------------------------|-------------------------|-------------------------|
E|-------------------------|-------------------------|-------------------------|

e|-------------------------|-------------------------|
B|-------------------------|-------------------------|
G|-------5--5--------7--7--|-------10-10-------9--9--|
D|-------5--5--------7--7--|-------10-10-------9--9--|
A|-------------------------|-------------------------|
E|-------------------------|-------------------------|

  Gtr.1 plays Rhy.Fig.7
  Gtr.2 plays Rhy.Fig.7a (2 times)
e|------------------------|-------------------|-----------------|-----------------|-----------------|
B|------------------------|-------------------|-----------------|-----------------|-----------------|
G|-------(4-bars)---------|-------------------|-----------------|-----------------|-----------------|
D|------------------------|-------------------|-----------------|-----------------|-----------------|
A|------------------------|-2-2-----5-5-------|-4-4-----3-3-3-2-|-----5-5-----4-4-|-----3-3-----2-2-|
E|------------------------|-0-0-----3-3-------|-2-2-----1-1-1-0-|-----3-3-----2-2-|-----1-1-----0-0-|

[Guitar Solo]
  Gtr.2 plays 4 first bars of Rhy.Fig.3 (2 times), then Rhy.Fig.3 completely
                                                                             dip w/bar
e|-17----------------------|----------15----17-------|-----------22----24----------|
B|-------------20-------20-|-19s15-17---/19----19-17-|-(22)b24-----b24---b24r22v20-|
G|----------17----17s19----|-------------------------|-----------------------------|
D|----17s19----------------|-------------------------|-----------------------------|
A|-------------------------|-------------------------|-----------------------------|
E|-------------------------|-------------------------|-----------------------------|

e|-------------------------|-------------------------|
B|----22-------------------|-------------------------|
G|-------21----------------|----------------19s17----|
D|----------20-19-20-------|-------17-------------17-|
A|-------------------19-17-|-15s17----15s17----------|
E|-------------------------|-------------------------|

   1           2           3           4             1           2            3           4
e|-------------------------------------------------|-------------------17-19-20-19-17----------------|
B|-------------------------------------------------|----------17-19-20----------------20-19-17-------|
G|-------------------------------------16-17-19-17-|-16-17-19----------------------------------19-17-|
D|----------------16-17-19-17-16-17-19-------------|-------------------------------------------------|
A|-19-17-15-17-19----------------------------------|-------------------------------------------------|
E|-------------------------------------------------|-------------------------------------------------|

 | Overdub lead guitar
e|-------------------------------------------------|-------------------14-15-17-15-14----------------|
B|-------------------------------------------------|----------13-15-17----------------17-15-13-------|
G|-------------------------------------12-14-16-14-|-12-14-16----------------------------------16-14-|
D|----------------12-14-16-14-12-14-16-------------|-------------------------------------------------|
A|-15-14-12-14-15----------------------------------|-------------------------------------------------|
E|-------------------------------------------------|-------------------------------------------------|

   1           2           3           4
e|-------------------------------------------------|-------------------------|
B|-------------------------------17~---------------|-17-------15-------17s22-|
G|-16----------------------16----------------------|----14s12----12s14-------|
D|----19-17-16-------17----------------------------|-------------------------|
A|-------------19----------------------------------|-------------------------|
E|-------------------------------------------------|-------------------------|

e|-------------------------------------------------|-------------------------|
B|-------------------------------------------------|-------------------------|
G|-12----------------------12----16~---------------|-------------------------|
D|----16-14-12-------14----------------------------|-------------------------|
A|-------------14----------------------------------|-------------------------|
E|-------------------------------------------------|-------------------------|

                             1           2           3           4
e|-------------------------|----------17-19----17-19-20-17-19-20-19-17-------|
B|----20-------15----------|-17-19-20-------20-------------------------20-19-|
G|-\17---17s12----12s17-20-|-------------------------------------------------|
D|-------------------------|-------------------------------------------------|
A|-------------------------|-------------------------------------------------|
E|-------------------------|-------------------------------------------------|

   1           2           3           4             1           2           3           4
e|-------------------------------------------------|-------------12h15p12----------------------------|
B|-17-20-19-17-------------------------------------|----------13----------13----------13-------------|
G|-------------19-17-16-19-17-16-------------------|-------12----------------12----12----12--s9--h12-|
D|-------------------------------19-17-16-19-17-16-|----14----------------------14-------------------|
A|-------------------------------------------------|-15----------------------------------------------|
E|-------------------------------------------------|-------------------------------------------------|

    1          2           3           4
e|-------------------------------------------------|
B|-------------------------------------------------|
G|-t17p12p9h12t21p12-p9h12t17p12-p9h12t21p12-p9----|
D|-------------------------------------------------|
A|-------------------------------------------------|
E|-------------------------------------------------|

    1                 2                 3                 4
e|-t20p19t20p19p17p15------------------t20p19t20p19p17p15-------------------|
B|-------------------t20p19t20p19p17p15------------------t20p19t20p19p17p15-|
G|--------------------------------------------------------------------------|
D|--------------------------------------------------------------------------|
A|--------------------------------------------------------------------------|
E|--------------------------------------------------------------------------|

                                                                              2/4 time (this bar only)
    1                 2                 3                4                    w/Rhy.Fill 1 (both gtrs)
e|-------------------------------------------------(hammered open harmonic)-|-------------|
B|-t17p15t17p15p13p12t20p15t20p15p13p12-0---------------ha5-----------------|-------------|
G|--------------------------------------------------------------------------|-------------|
D|--------------------------------------------------------------------------|-------------|
A|--------------------------------------------------------------------------|-------------|
E|--------------------------------------------------------------------------|-------------|

[Chorus]
   w/ Rhy.Fig 4
e|------------------------------------------------|
B|-------------------(10-bars)--------------------|
G|------------------------------------------------|
D|------------------------------------------------|
A|------------------------------------------------|
E|------------------------------------------------|

   w/ Rhy.Fig 5
e|------------------------------------------------|
B|-------------------(8-bars)---------------------|
G|------------------------------------------------|
D|------------------------------------------------|
A|------------------------------------------------|
E|------------------------------------------------|

   w/ Rhy.Fig 6
e|------------------------------------------------|
B|-------------------(8-bars)---------------------|
G|------------------------------------------------|
D|------------------------------------------------|
A|------------------------------------------------|
E|------------------------------------------------|

[Outro]
(Lead guitar plays ad.lib. bar effects and lots of harmonics)
                                                            play 3 times
e|----------------------------------|----------------------------------|
B|----------------------------------|----------------------------------|
G|o---------------------------------|---------------------------------o|
D|o---------------------------------|---------------------------------o|
A|----------------------------------|----------------------------------|
E|--0---0---0---------------0---0---|-0---------------0---0---0-0-0----|
    m   m   m               m   m     m               m   m   m m m

e|---------------------------------|---------------------------------|
B|---------------------------------|---------------------------------|
G|---------------------------------|---------------------------------|
D|---------------------------------|---------------------------------|
A|---------------------------------|---------------------------------|
E|-0---0---0---0---0-------0---0---|-0---0---0-----------------------|
   m   m   m   m   m       m   m     m   m   m



************************************

| \  Slide down
| x  Dead note
| ~  Vibrato
| /  Slide up
| .  Staccato
| r  Release
| b  Bend
| *  Natural harmonic
| h  Hammer-on
| p  Pull-off
| t  Tapping

************************************
Suggest correction
comments
print report bad tab
18 comments total. Showing first comments.
0 reply
Kreuger 792 May 23, 2006 06:55 PM

I think one of the only problems here is in the end of the solo. It sounds more like Alexi is doing sweep picking rather than the tapping

+1 reply
kerryking112 62 Jul 16, 2006 11:35 AM

This is pretty hard to read...

0 reply
littleleo88 223 Oct 17, 2006 05:33 PM

i agree with kreuger, similar style of incredibly fast sweep picking as in sixpounder, look at the 5 star ASCII tab of that to see what i mean. but definately sounds like sweeping to me

guest
You may want to rate the tab now too:
select rating
Wanna post a correction for this tab? Suggest correction