Oops, an error
Loading. Please wait.

Hellion Bass Tab

version 1
version 1

Whole song

951 views 1 this week
no commentswrite comment
1 2 3 4 5
please rate
add to favorites
launch autoscroll
font size
0
reset
guitar tuner
Autoscroll
slow
fast
+/-
esc
set tempo
stop
Help us to improve Ultimate-Guitar.com Take our survey!
×
Contributor
Children of Bodom - Hellion (W.A.S.P. Cover)

Tuning (A D G C F)
             2xs
|-----------------|
|-----------------|
|-----------------|
|--7---5---3------|
|--------------0--|
this parts a lil confusing to tab i'll do my best

|----------44444--2------------------777-666-555--------------|
|-------------------44---------------------------77-55--------|
|---1-1111------------------2-2222----------------------7-5---|
|-------------------------------------------------------------|
|-------------------------------------------------------------|
play the 2s more times then 5
|------------101010101--99999-8888-77777------------------------------------------|
|----------------------------------------101010--9999-7777------------------------|
|--2--2222--------------------------------------------------101010-999-7777-5-3---|
|---------------------------------------------------------------------------------|
|---------------------------------------------------------------------------------|

|------------------141414141414-1212121212----------------------------------|
|-------------------------------------------141414141414-12121212-----------|
|--2-222222----------------------------------------------------------14-12--|
|---------------------------------------------------------------------------|
|---------------------------------------------------------------------------|

|--------------------------------|
|--------------------------------|
|--------------------------------|
|7-75-53-3------7-75-53-3-----3--|
|----------0--------------0-0----|
verse
|--------------------------------------|
|--------------------------------------|
|-000000000000--0---0000000000000---0--|
|--------------3-------------------3---|
|--------------------------------------|
cont...
|---------------------------------------------------|
|---------------------------------------------------|
|--000000000000----0---000000000000000--5-3-5----0--|
|----------------3-----------------------------3----|
|---------------------------------------------------|
cont....
|--------------------------------------|
|--------------------------------------|
|-000000000000--0---0000000000000---0--|
|--------------3-------------------3---|
|--------------------------------------|
cont...
|---------------------------|
|---------------------------|
|--5-3-5--------------------|
|----------3--------3---3---|
|---------------1-----------|

chorus
|---------------------------------------------------|
|--------------------------------0---020------------|
|--0-0000-------------------------23------3-2-0--3--|
|----------1-11111-----3-33333----------------------|
|---------------------------------------------------|
interlude
|----------------------------------------------------|
|----------------------------------------------------|
|--3-333-3-333-5-555-5-555--3-333-3-333-5-555-5-555--|
|----------------------------------------------------|
|----------------------------------------------------|
interlude cont.....
|--------------------------------------------------|
|--------------------------------------------------|
|--1-111-1-111-3-333-3-333-1-111-1-111-------------|
|---------------------------------------3-3-3-3-3--|
|--------------------------------------------------|
solo backing
|----------------------0------0-2-0----------|
|-0-00000000000-----------2-3---------3-2-0--|
|------------------3-------------------------|
|----------------1---------------------------|
Ending
|-----------------------------------------------------------------------|
|--0-----0-2-0-----2------0-----0-2-0--------------0-----0-2-0----------|
|----2-3-------3-2----------2-3-------3-2-0--0--0----2-3-------3-2-0----|
|-----------------------------------------------------------------------|
|-----------------------------------------------------------------------|
comments
We did not receive enough feedback on this tab! Please rate:
print report bad tab
1 2 3 4 5
I want to post or [tab]
guest
You may want to rate the tab now too:
select rating
Please do not post tabs as comments. Select "correction" instead!