Oops, an error
Loading. Please wait.

Hellion Tab

version 1
version 1

Solo

Whole song

753 views 1 this week
no commentswrite comment
1 2 3 4 5
please rate
add to favorites
launch autoscroll
font size
0
reset
how to read this tab
guitar tuner
Autoscroll
slow
fast
+/-
esc
set tempo
stop
Help us to improve Ultimate-Guitar.com Take our survey!
×
Author
Hey all, hope this is correct. D standard tuning.  Could be drop C, but there are so few 
notes here on the 6th string.

Song: Hellion (solo only)
Band: Children of Bodom (their version of the song at least)
Tuning: D standard

Legend:
wb: Whammy bar Bend.
wd: Whammy bar Dive.
b: Bend
h: Hammer on
p: Pull off
~: Hold the note, or swivel.
: Harmonic (pinch or natural)
/ or \: Slides
(note): Either is a note you let ring, or note you barely hear (escape from)
.: under note, palm mute



Time solo starts: Around 2:10
e---------------------------------------------------------------------------|
B-14wb16.5wd----------------------------------------------------------------|
G------------------14b16-12b14----------------------------------------------|
D---------------------------------14b14.5-14~-------------------------------|
A---------------------------------------------------------------------------|
E---------------------------------------------------------------------------|


e----15p12h15p12-----15p12h15p12-----15p12h15p12-------15p12p0-19p15p0------|
B-/12-----------15p12-----------15p12------------15p12----------------------|
G---------------------------------------------------------------------------|
D---------------------------------------------------------------------------|
A---------------------------------------------------------------------------|
E---------------------------------------------------------------------------|


e---17p15h17p15-------17p15h17p15-------<19>wd------7-5-3-------------------|
B---------------17p15-------------17p15--------------------7-7-5-3----------|
G---------------------------------------------------------------------------|
D---------------------------------------------------------------------------|
A---------------------------------------------------------------------------|
E---------------------------------------------------------------------------|


(harmonic section)                        (This 6 can't be quite right)
e--<5><5><7><7>-------------------------------------------------------------|
B---------------<5><5>-------------------<5><5><5>-<6><6><6><6>-------------|
G----------------------<5><5>-----------------------------------------------|
D-----------------------------<5><5><5>-------------------------------------|
A---------------------------------------------------------------------------|
E---------------------------------------------------------------------------|


e-7p6p5p7p6p5-7p6p5-7p6p5-7p6p5---------------------------------------------|
B-------------------------------8-------------------------------------------|
G---------------------------------------------------------------------------|
D---------------------------------------------------------------------------|
A---------------------------------------------------------------------------|
E---------------------------------------------------------------------------|


e----8-7-5-------------5-7-8-12-10-8-------------------8-10-12--------------|
B----------8-7-5-5-7-8----------------12-10-8-8-10-12-----------------------|
D---------------------------------------------------------------------------|
A---------------------------------------------------------------------------|
E---------------------------------------------------------------------------|


e---<15>p12-----------------------------------------------------------------|
B-------------15p12---------------------------------------------------------|
G--------------------14p12----------------12h14p12--------------------------|
D----------------------------14----(14b)------------------------------------|
A---------------------------------------------------14p12-------------------|
E----------------------------------------------------------13---------------|
(sounds weird, but listen closely, that 13 is there)




Around 2:25 (If anything is wrong with this tab, it's in this part…
mainly guitar 2)

Guitar 1
e-----------------------------------------------------------12-14-15-14-15\-|
B-----------15~-----------------------------------------12-15---------------|
G-12~(12)/14--(14)\12-12-(12)/14-14-12~-12-14(12/)/14-14--------------------|
D---------------------------------------------------------------------------|
A---------------------------------------------------------------------------|
E---------------------------------------------------------------------------|

Guitar 2
e---------------------------------------------------------------------------|
B-----------------------------------------------------------------------12\-|
G---(11)/12-12~(12)\11--/11(11)/12--11-/11-11-12(11)/12-12-14-(12)/14-14----|
D-14~~----------------14----------14~---------------------------------------|
A---------------------------------------------------------------------------|
E---------------------------------------------------------------------------|

Time is about 2:33
e--7----0-0-0-0-10----0-0-0-0-3--0---7----0-0-0-0-10---0-0-0-0-3----0-------|
B---------------------------------------------------------------------------|
G---------------------------------------------------------------------------|
D---------------------------------------------------------------------------|
A---------------------------------------------------------------------------|
E---------------------------------------------------------------------------|
        . . . .      . . . .              . . . .     . . . .

Going through the E Locrian mode here…(and part of F Ionian) (remember the tuning, not 
really EADGBe)
e-20-19-17---------19-17-15-------------------------------------------------|
B---------20-19-17---------19-17-15-----------------------------------------|
G-----------------------------------17-16-14--------------------------------|
D--------------------------------------------17-16-14-----------------------|
A-----------------------------------------------------17-15-14--------------|
E--------------------------------------------------------------17-15-14-----|

Through G Dorian
e-------------------------------------------------------19-20-22-24~~\------|
B----------------------------------------------19-20-22---------------------|
G-------------------------------------17-19-21------------------------------|
D----------------------------17-19-21---------------------------------------|
A-------------------17-19-21------------------------------------------------|
E-15-17-19-17-19-20---------------------------------------------------------|


That's about it, questions and comments are welcome. If you see anything that isn't 
quite right, or if you have a different way of playing something, please let me know.

Good luck
Suggest correction
Give kudos to tab author, rate the tab!
1 2 3 4 5
comments
print report bad tab
guest
You may want to rate the tab now too:
select rating
Please do not post tabs as comments. Select "correction" instead!