Oops, an error
Loading. Please wait.

If You Want Peace Prepare For War guitar pro

version 3
version 3

Whole song

Interactive

26,326 views 1 this week
4 commentsread comments
1 2 3 4 5
x 14
add to favorites
guitar tuner
Autoscroll
slow
fast
+/-
esc
set tempo
stop
"If You Want Peace Prepare For War"
demo version
Play now

or get full version for Free

×
Get full version now!
Learn and play this song
in Tab Pro
Try for free

or get $10 off Welcome Bonus

Get welcome bonus
Get access to Tab Pro version of “If You Want Peace Prepare For War”!
Tab Pro is a premium guitar tab service, available on PC, Mac, iOS and Android
TRY FOR FREE
Your download will start in 7 seconds
×
Like this song? We have more! Follow us on Facebook for daily tips, lessons and other guitar-related content.
To download “If You Want Peace Prepare For War” Guitar Pro tab click button below
Please note that you must have Guitar Pro software installed on your
computer in order to view this file.
Suggest correction
comments
report bad tab
4 comments total. Showing first comments.
+2 reply
Wilkesy1000 31 Feb 20, 2008 10:26 PM

****ing fantastic
except that

|-----------------------------------------|
|-----------------------------------------|
|-----------------------------------------|
|-7-9-10-------------------5-7------------|
|--------8-10b---/6-8-10-5-----5----------|
|-----------------------------------------|


|-----------------------------------------|
|-----------------------------------------|
|-------------------7---------------------|
|-7-9-10--------7-5-----------------------|
|--------8-10b----------10-12-------------|
|-----------------------------13-10-------|


im not sure is correct.
but the rest is ****ing great
nice tab
5 stars

0 reply
metallicax6 83 Mar 29, 2008 08:37 AM

Hey, can someone turn this tab into power tab or normal tab?

0 reply
eduardo-pooley 134 Jun 05, 2011 03:40 PM

The intro is like this: http://www.youtube.com/watch?v=fBqoq8Povg8 but is still acurate 4*

guest