Oops, an error
Loading. Please wait.

In Your Face Bass Tab

version 1
version 1
8,313 views 3 this week
11 commentsread comments
1 2 3 4 5
worth learning
x 10
add to favorites
launch autoscroll
font size
0
reset
guitar tuner
Autoscroll
slow
fast
+/-
esc
set tempo
stop
Help us to improve Ultimate-Guitar.com Take our survey!
×
Author
Difficulty
IvanHo 151
intermediate
Children Of Bodom
In your face
tabbed by IvanHo (System Flatline)

GO!

Riff 1
G|---------------|----------------|
D|---------------|----------------|
A|---------------|----------------|
E|---------------|----------------|
B|-1111-11111-11-|-1111-1-1-11111-|

Riff 2
G|---------|---------|---------|-------|
D|---------|---------|---------|-------|
A|---------|---------|---------|-------|
E|---------|---------|---------|-------|
B|-7-4-6-1-|-7-4-6-1-|-7-4-6-1-|-1--1--|

Riff 3
G|---------------|-----------------|---------------|---------------|
D|---------------|-----------------|---------------|---------------|
A|---------------|-----------------|---------------|---------------|
E|---------------|-----------------|---------------|-333-333-333---|
B|-111-111-111---|-111-111-111-4-3-|-111-111-111---|---------------|

G|---------------|----------------|---------------|---------------|
D|---------------|----------------|---------------|---------------|
A|---------------|---------3-2-1--|---------------|---------------|
E|---------------|----------------|---------------|-333-333-333---|
B|-111-111-111---|-111-111--------|-111-111-111---|---------------|

Riff 4 4X
G|---------------------------------------|
D|---------------------------------------|
A|---------------------------------------|
E|-3-3-4-3-3-3-3-3-3-3-3-----------------|
B|-----------------------1-1-1-1-1-1-1-1-|

Riff 2
Riff 3
Riff 1

Riff 5
G|---------------------------------|
D|---------------------------------|
A|---------------------------------|
E|---------3-3-3-3-4-4-4-4---------|
B|-1-1-1-1-----------------4-4-3-3-|

Solo
Riff 6A   4X		4X
G|-----------------|---------------|
D|-----------------|---------------|
A|-----------------|---------------|
E|-----------------|---------------|
B|-2-2-2-2-2-2-2-2-|-1-1-1-1-1-1-1-|
 
Riff 6B
G|-------------------------------|
D|-------------------------------|
A|-0----2----4----7----4----2----|
E|-------------------------------|
B|-------------------------------|

Break
Riff 4
Riff 2
Riff 1
Riff 5

End C

Have fun
http://www.systemflatline.com
Suggest correction
What's this?
You can suggest a correction to this tab. Community and Mods will review your correction and vote to approve or reject it.
comments
print report bad tab
11 comments total. Showing first comments.
0 reply
killme2 11 wrote on December 30 2006, 03:53 pm

If you knew the band well, you would know that they only have a 4 stinged bass... that makes your tabs incorrect

0 reply
IvanHo 151 wrote on January 3 2007, 05:01 am

If you know how to b=play bass you can see that you can play this on a 4 string tuned as BEAD (standard). The same like a guitar (6 strings) is tuned down from EADGBE tot CGCFAD.

0 reply
Billy Bass 236 wrote on January 25 2007, 01:12 pm

since when waz BEAD standard tuning? its EADG u dumbass

guest
You may want to rate the tab now too:
select rating
Please do not post tabs as comments. Select "correction" instead!