Oops, an error
Loading. Please wait.

In Your Face Bass Tab

version 2
version 2
1,248 views 3 this week
no commentswrite comment
1 2 3 4 5
3 more votes to show rating
add to favorites
launch autoscroll
font size
0
reset
guitar tuner
Autoscroll
slow
fast
+/-
esc
set tempo
stop
Help us to improve Ultimate-Guitar.com Take our survey!
×
Author
Difficulty
Tuning
intermediate
C G C F A D
               Children Of Bodom - In Your Face

Tabbed by : Tank Adams
email : yr7boy@hotmail.co.uk
Tuning : CGCFAD (Drop C)

(you MUST listen to the song beforehand to work out the rythm of certain parts of this song)


Intro 1/Main Riff  (Come in after guitar plays riff twice)
F---------------------------------|
C---------------------------------| 3X
G---------------------------------|
C-0000-000-0000-0000-000-0000-----|

Intro 2
F---------------------------------|
C---------------------------------|    1X
G---0-1-3---5-0-1-----------------|
C-0---------------1---------------|

Intro 3
F--------------------------------------|
C--------------------------------------|
G------------------------------33333---|  4X
C-6-3-5-0-6-3-5-0-6-3-5-0-2222---------|

Verse 1
F---------------------------------------|     1X
C---------------------------------------|
G-5---------------5-------5-3-5--5------|
C---0-0-0---0-0-0---0-0-0---------------|

F---------------------------------|
C--------------------------3-2----|
G-5---------------5---------------|     1X
C---0-0-0---0-0-0---0-0-0---------|

F----------------------------------------------------|
C----------------------------------------------------|      1X
G-5---------------5-------5-3-5-5--------------------|
C---0-0-0---0-0-0---0-0-0---------777777777777-------|

F---------------------------------|
C---------------------------------|    1X
G-5---------------5-------5-3-5-5-|
C---0-0-0---0-0-0---0-0-0---------|

F---------------------------------|
C---------------------------------|
G-5---------------5-------5-4-3---|   1X
C---0-0-0---0-0-0---0-0-0---------|

F----------------------------------------------------|
C----------------------------------------------------|      1X
G-5---------------5-------5-3-5-5--------------------|
C---0-0-0---0-0-0---0-0-0---------777777777777-------|


Bridge 1
F------------------------------------------|
C------------------------------------------|  2X
G------------------------------------------|
C-8888888888888-000000000000000000000000000

F-------------------------------------|
C-------------------------------------|
G-------------------------------1-0---|
C-8888888888888-00000000000-2-3-------|

Refrain 1
F--------------------------------------|
C--------------------------------------|
G------------------------------33333---|  4X
C-6-3-5-0-6-3-5-0-6-3-5-0-2222---------|

Verse 2
F---------------------------------------|     1X
C---------------------------------------|
G-5---------------5-------5-3-5--5------|
C---0-0-0---0-0-0---0-0-0---------------|

F---------------------------------|
C--------------------------3-2----|
G-5---------------5---------------|     1X
C---0-0-0---0-0-0---0-0-0---------|

F----------------------------------------------------|
C----------------------------------------------------|      1X
G-5---------------5-------5-3-5-5--------------------|
C---0-0-0---0-0-0---0-0-0---------777777777777-------|

F---------------------------------|
C---------------------------------|    1X
G-5---------------5-------5-3-5-5-|
C---0-0-0---0-0-0---0-0-0---------|

F---------------------------------|
C---------------------------------|
G-5---------------5-------5-4-3---|   1X
C---0-0-0---0-0-0---0-0-0---------|

F----------------------------------------------------|
C----------------------------------------------------|      1X
G-5---------------5-------5-3-5-5--------------------|
C---0-0-0---0-0-0---0-0-0---------777777777777-------|


Bridge 2
F---------------------------------|
C---------------------------------|
G---------------------------------|  2X
C-0000-000-0000-0000-000-0000-----|


Bridge 3
F---------------------------------|
C---------------------------------|  2X
G---0-1-3---5-0-1-----------------|
C-0---------------1---------------|


Solo 1
F--------------------------------------------------|
C--------------------------------------------------|  3X
G--------------------------------------------------|
C-1s2-----1-----1-----1--1--3s4--1--1--3s4--1--1---|

F------------------------------------------|
C-----------------1------4-------3---------|
G-2-------4------------------------------4-|    1X
C------------------------------------------|


Solo 2
F---------------------------------------------------------|
C---------------------------------------------------------|
G---------------------------------------------------------|  3X
C-0h1------0------0--0------0-----2s3---0--0--2s3--0--0---|

F----------------------------------------------------------|
C---------------------0-----------3---------0--------------|
G-1---------3----------------------------------------3-----|    1X
C----------------------------------------------------------|

Synth Solo
F--------------------------------|
C--------------------------------|
G-1--------------5---------------|
C--------------------------------|
                                    2X
F--------------------------------|
C--------------------------------|
G-1--------------5----------1-0--|
C-------------------2-3----------|


Interlude
F--------------------------------|
C--------------------------------|   1X
G-1--1-1-1-------5---5555--------|
C--------------------------------|


Interlude 2
F----------------------------------|
C----------------------------------|
G-11111111111-5555555555-------1-0-|
C--------------------------2-3-----|
                                    1X
F---------------------------------|
C---------------------------------|
G-11111111111-5555555555----------|
C---------------------------------|

F----------------------------------|
C----------------------------------|
G-11111111111-5555555555-------1-0-|
C--------------------------2-3-----|


Refrain 2
F---------------------------------------|
C---------------------------------------|
G------------------------------33333----|   4X
C-6-3-5-0-6-3-5-0-6-3-5-0-2222----------|

Outro 1/Main Riff
F---------------------------------|
C---------------------------------|     4X
G---------------------------------|
C-0000-000-0000-0000-000-0000-----|

Outro 2
F---------------------------------|
C---------------------------------|      2X
G---0-1-3---5-0-1-----------------|
C-0---------------1---------------|

Outro 3
F---------------------------------|
C---------------------------------|       1X
G---------------------------------|
C-0000-000-0000-------------------|
Suggest correction
Give kudos to tab author, rate the tab!
1 2 3 4 5
comments
print report bad tab
guest
You may want to rate the tab now too:
select rating
Wanna post a correction for this tab? Suggest correction