Oops, an error
Loading. Please wait.

In Your Face Bass Tab

version 3
version 3
1,091 views 1 this week
no commentswrite comment
1 2 3 4 5
excellent!
x 5
add to favorites
launch autoscroll
font size
0
reset
guitar tuner
Autoscroll
slow
fast
+/-
esc
set tempo
stop
Help us to improve Ultimate-Guitar.com Take our survey!
×
Author
Difficulty
Tuning
advanced
C G C F A D
-----------------------------------------------------------------------------
                             Children Of Bodom - In Your Face
-----------------------------------------------------------------------------
Tabbed by: Andu Needle
E-mail: sulfur_in_my_lungs@yahoo.com

Intro:

F|-------------------------------------------------------|
C|-------------------------------------------------------|
G|-------------------------------------------------------|
C|-0000-000000-00--0000-0-0-00000------------------------|(x4)


F|-------------------------------------------------------|
C|-------------------------------------------------------|
G|----0~-1~-3~--5~-0~-1~---------------------------------|
C|-0~--------------------1-------------------------------|

F|-------------------------------------------------------|
C|-------------------------------------------------------|
G|-----------------------------------3333---------3333---|
C|-6350-635500-6350-0-336699-6350-63------6350-00--------|(x2)

Verse:

F|-------------------------------------------------------|
C|-------------------------------------------------------|
G|-5--------5----535-5--------5----87--------------------|
C|---000000---00-------000000---00-----------------------|

F|-------------------------------------------------------|
C|-------------------7--------7----757-------------------|
G|-5--------5----101---000000---00-----------------------|
C|---000000---00-----------------------------------------|

F|-------------------------------------------------------|
C|-------------------------------------------------------|
G|-5--------5----535-5----------432----------------------|
C|---000000---00-------00000000--------------------------|

F|-------------------------------------------------------|
C|-------------------7--------7----757-------------------|
G|-5--------5----101---000000---00-----------------------|
C|---000000---00-----------------------------------------|

The part after the verse:

F|-------------------------------------------------------|
C|-------------------------------------------------------|
G|-11111111(x2)-55555555-55553333------------------------|
C|-------------------------------------------------------|

F|-------------------------------------------------------|
C|-------------------------------------------------------|
G|-11111111(x2)-55555555---------------------------------|
C|-----------------------55787---------------------------|(x2)

After this, the intro part again:

F|-------------------------------------------------------|
C|-------------------------------------------------------|
G|-----------------------------------3333---------3333---|
C|-6350-635500-6350-0-336699-6350-63------6350-00--------|(x2)

Verse 2 like the first one.

The intro part:

F|-------------------------------------------------------|
C|-------------------------------------------------------|
G|-------------------------------------------------------|
C|-0000-000000-00--0000-0-0-00000------------------------|(x2)

F|-------------------------------------------------------|
C|-------------------------------------------------------|
G|----0~-1~-3~--5~-0~-1~-3~------------------------------|
C|-0~----------------------------------------------------|

F|-------------------------------------------------------|
C|-------------------------------------------------------|
G|----0~-1~-3~--5~-0~-1111-1-11111-----------------------|
C|-0~----------------------------------------------------|

Solo:

F|-------------------------------------------------------|
C|-----------------------------------------------4-------|
G|-----------------------------------------1-4-6---6-4---|
C|-3-1-00000000-8-11-00000000-4-2-00000000---------------|

F|-------------------------------------------------------|
C|-----------------------------------------------3-------|
G|-----------------------------------------0-3-5---5-3---|
C|-3-1-00000000-8-11-00000000-4-2-00000000---------------|

F|-------------------------------------------------------|
C|-------------------------------------------------------|
G|-11111111(x2)--------------11111111--------------------|
C|--------------00000000(x2)----------55787--------------|(x2)

The breakdown part:

F|-------------------------------------------------------|
C|-------------------------------------------------------|
G|-1--1--10-5--5-53--------------------------------------|
C|-------------------------------------------------------|

The rhythm is pretty weird.

F|-------------------------------------------------------|
C|-------------------------------------------------------|
G|-11111111(x2)-55555555---------------------------------|
C|-----------------------55787---------------------------|

F|-------------------------------------------------------|
C|-------------------------------------------------------|
G|-11111111(x2)-55555555-55553333------------------------|
C|-------------------------------------------------------|

F|-------------------------------------------------------|
C|-------------------------------------------------------|
G|-11111111(x2)-55555555---------------------------------|
C|-----------------------55787---------------------------|

After this it goes like this:

F|-------------------------------------------------------|
C|-------------------------------------------------------|
G|-----------------------------------3333---------3333---|
C|-6350-635500-6350-0-336699-6350-63------6350-00--------|(x2)

The intro part again:

F|-------------------------------------------------------|
C|-------------------------------------------------------|
G|-------------------------------------------------------|
C|-0000-000000-00--0000-0-0-00000------------------------|(x4)

Chorus again:

F|-------------------------------------------------------|
C|-------------------------------------------------------|
G|----0~-1~-3~--5~-0~-1~-3~------------------------------|
C|-0~----------------------------------------------------|

F|-------------------------------------------------------|
C|-------------------------------------------------------|
G|----0~-1~-3~--5~-0~-1111-1-11111-----------------------|
C|-0~----------------------------------------------------|

Ending:

F|-------------------------------------------------------|
C|-------------------------------------------------------|
G|-------------------------------------------------------|
C|-0000-0-0-00000----------------------------------------|

Note: In the verse "101" is 1 0 1. No 10 or other stuff.

It`s a pretty hard song. You`ll have to figure out the measures by yourselves. I 
just tabbed the roots of the song.
Suggest correction
comments
print report bad tab
guest
You may want to rate the tab now too:
select rating
Wanna post a correction for this tab? Suggest correction