Oops, an error
Loading. Please wait.

Lil Bloodred Ridin Hood solo tab

version 1
version 1

Solo

Whole song

5,384 views 9 this week
5 commentsread comments
1 2 3 4 5
x 8
add to favorites
×
Save as Personal and add changes to this tab that will be seen only by you. Learn more ›
×
You can save this tab as Personal to edit and correct it or add notes. All changes will be seen only by you. Learn more »
launch autoscroll
font size
0
reset
how to read this tab
guitar tuner
backing track
0:00
0:00
edit
Autoscroll
slow
fast
+/-
esc
set tempo
stop
Author
'Lil blood red ridin hood' by children of bodom

Tabbed by jon c 
e-mail - Ydks@hotmail.co.uk

THIS TAB IS ONLY WHAT ALEXI PLAYS!!!  AND IS NOT JUST THE SOLO. THIS IS THE ENTIRE 
SONG FOR ONE GUITAR!!!

Tuning- DGCFAd

^= Bend
^v= bend and release. always release on the note after the bend and release...
s= sustained note
ph= pinched harmonic
\    /= tremolo arm dive
 \  /
  \/

Intro Riff...

d---------------------------------------------------------------------|
A---------------------------------------------------------------------|
F---------------------------------------------------------------------|
C--9-9-9-10-10-10--------9-9-9-12-12-12--------9-9-9-10-10-10---------|
G--7-7-7--8--8--8-12-12--7-7-7-10-10-10-12-12--7-7-7--8--8--8-12-12---|
D-----------------10-10-----------------10-10-----------------10-10---|

d----------------------------------------------------------------|
A----------------------------------------------------------------|
F----------------------------------------------------------------|
C--9----------------9-9-9-10-10-10--------9-9-9-12-12-12---------|
G--7----------------7-7-7--8--8--8-12-12--7-7-7-10-10-10-12-12---|
D----0-7-0-6-0-5-0-----------------10-10-----------------10-10---|
   pm.............

d------------------------------------|
A------------------------------------|
F-------------------------9--4-5-7---|
C--9-9-9-10-10-10---------9--4-5-7---|
G--7-7-7--8--8--8-12-12---7--2-3-5---|
D-----------------10-10--------------|


RIFF 2 (after each note, mute it straight afterwards...)

d-----------------------------------------------------------------|
A----------------6-6--------------------------------6-6-----------|
F----------------7-7--------------------------------7-7-----------|
G-------------------------------7-10-9----------------------------|
C----7-7-7-7-7-7-----7-7-7-7-10-----------7-7-7-7-7-----7-7-7-7---|
D--0------------------------------------0-------------------------|
pm .
d--------------------|
A--------------------|
F----4-7-5-4---------|
G--5---------7-5-4---|
C--------------------|
D--------------------|

d-----------------------------------------------------------------------|
A-------------------------------------------8-7-------------------------|
F-----------------------------------------------------------------------|
G---------------------------------------7-9-----------------------------|
C----10-10-10-10-10-10-9-9-10-10-10-10----------10-10-10-10-10-10-9-9---|
D--0--------------------------------------------------------------------|

Tremelo picking until the last two notes...
d--------------|
A--------------|
F--------------|
G--------------|
C------3-4-----|
D--3-4-----3---|

RIFF 3...

d------------------------------------------------------|
A------------------------------------------------------|
F------------------------------------------------------|
G----------12-9-7--5----------12-9--8-9------8-9-7-----|
C--2-2---2-10-7-5--3--2-2-2-2-10-7------9-10-------10--|
D--0-0---0------------0-0-0-0--------------------------|
   pm.....            pm.....

d-----------------------------------------------------|
A-----------------------------------------------------|
F-----------------------------------------------------|
G----------12-9-7--5---------12-9--8-9------8-9-7-----|
C--2-2---2-10-7-5--3-2-2-2-2-10-7------9-10-------10--|
D--0-0---0-----------0-0-0-0--------------------------|
   pm.....           pm.....

RIFF 4...

d-------------12----10-9--------------------|
A-----9-10---------------12^V10--9-9^v------|
F--11------11----11--------------------11---|
G-------------------------------------------|
C-------------------------------------------|
D-------------------------------------------|

d-------------12----10-9------------^------|
A-----9-10---------------12^V10--9-9^------|
F--11------11----11------------------------|
G------------------------------------------|
C------------------------------------------|
D------------------------------------------|

d-------------12----10-9--------------------|
A-----9-10---------------12^V10--9-9^v------|
F--11------11----11--------------------11---|
G-------------------------------------------|
C-------------------------------------------|
D-------------------------------------------|

d-------------12----10-9----------------21-16---------|
A-----9-10---------------------17-21-17-------17------|
F--11------11----11---------18-------------------18---|
G-----------------------------------------------------|
C-----------------------------------------------------|
D-----------------------------------------------------|

RIFF 4...

d-------------12----10-9--------------------|
A-----9-10---------------12^V10--9-9^v------|
F--11------11----11--------------------11---|
G-------------------------------------------|
C-------------------------------------------|
D-------------------------------------------|
                                   
d-------------12----10-9------------^------|
A-----9-10---------------12^V10--9-9^------|
F--11------11----11------------------------|
G------------------------------------------|
C------------------------------------------|
D------------------------------------------|
                                   ph.

d-------------12----10-9--------------------|
A-----9-10---------------12^V10--9-9^v------|
F--11------11----11--------------------11---|
G-------------------------------------------|
C-------------------------------------------|
D-------------------------------------------|

d-------------12----10-9----------------21-16---------|
A-----9-10---------------------17-21-17-------17------|
F--11------11----11---------18-------------------18---|
G-----------------------------------------------------|
C-----------------------------------------------------|
D-----------------------------------------------------|

RIFF 5...

d--------------------------------------------------------------------------A--|
F-----------------------------------------------------------------------------|
G-----------------------------------------------------------------------------|
C--4-4-4-5-5-5-2-2---4-4-4-7-7-7-2-2---4-4-4-5-5-5-2-2---4-4--4---3---2-------|
D--2-2-2-3-3-3-0-0---2-2-2-5-5-5-0-0---2-2-2-3-3-3-0-0---2-2----2---2---2-----|

d-------------------------------------------------------------------|
A-------------------------------------------------------------------|
F-----------------------------------------------------------6-7-9---|
G--------------------------------------------------------4--6-7-9---|
C--4-4-4-5-5-5-2-2---4-4-4-7-7-7-2-2---4-4-4-5-5-5-2-2---4--4-5-7---|
D--2-2-2-3-3-3-0-0---2-2-2-5-5-5-0-0---2-2-2-3-3-3-0-0---2----------|

RIFF 6...

d--------------------------------------------------------------------------A--|
F-----------------------------------------------------------------------------|
G-----------------------------------------------------------------------------|
C--4-4-4-5-5-5-2-2---4-4-4-7-7-7-2-2---4-4-4-5-5-5-2-2---4-4--4---3---2-------|
D--2-2-2-3-3-3-0-0---2-2-2-5-5-5-0-0---2-2-2-3-3-3-0-0---2-2----2---2---2-----|
pm.........................................................................

d-------------------------------------------------------------------|
A-------------------------------------------------------------------|
F-----------------------------------------------------------6-7-9---|
G--------------------------------------------------------4--6-7-9---|
C--4-4-4-5-5-5-2-2---4-4-4-7-7-7-2-2---4-4-4-5-5-5-2-2---4--4-5-7---|
D--2-2-2-3-3-3-0-0---2-2-2-5-5-5-0-0---2-2-2-3-3-3-0-0---2----------|
pm....................................................


RIFF 7...

d-----------------------------------------------------------------|
A----------------6-6--------------------------------6-6-----------|
F----------------7-7--------------------------------7-7-----------|
G-------------------------------7-10-9----------------------------|
C----7-7-7-7-7-7-----7-7-7-7-10-----------7-7-7-7-7-----7-7-7-7---|
D--0------------------------------------0-------------------------|

d--------------------|
A--------------------|
F----4-7-5-4---------|
G--5---------7-5-4---|
C--------------------|
D--------------------|

d-----------------------------------------------------------------------|
A-------------------------------------------8-7-------------------------|
F-----------------------------------------------------------------------|
G---------------------------------------7-9-----------------------------|
C----10-10-10-10-10-10-9-9-10-10-10-10----------10-10-10-10-10-10-9-9---|
D--0--------------------------------------------------------------------|

Tremelo pick all but ast two notes
d--------------|
A--------------|
F--------------|
G--------------|
C------3-4-----|
D--3-4-----3---|


first section of solo...

d--14-13-14-11----------------------11--14-13-14-11----------------------11-|
A--------------14-11----------11-14-----------------14-11----------11-14----|
F--------------------14-13-14-----------------------------14-13-14----------|
G---------------------------------------------------------------------------|
C---------------------------------------------------------------------------|
D---------------------------------------------------------------------------|

d--14-13-14-11--------16-15-16-13--------|
A--------------14-11--------------16-13--|
F----------------------------------------|
C----------------------------------------|
G----------------------------------------|
D----------------------------------------|

d-18-17-18-14----------------------14--18-17-18-14-----------------------14-|
A-------------14----------------14------------------14----------------14----|
F----------------15----------15------------------------15----------15-------|
C-------------------16-15-16------------------------------16-15-16----------|
G---------------------------------------------------------------------------|
D---------------------------------------------------------------------------|

d--18-17-18-14-------20-19-20-16-------21-20-21-18------------|
A--------------14----------------16----------------21-18-21^--|
F-----------------15----------------17------------------------|
C-------------------------------------------------------------|
G-------------------------------------------------------------|
D-------------------------------------------------------------|

Second section...

d--12-11-12-9--------------------9--12-11-12-9--------------------9--|
A-------------12-9----------9-12---------------12-9----------9-12----|
F------------------12-11-12-------------------------12-11-12---------|
C--------------------------------------------------------------------|
G--------------------------------------------------------------------|
D--------------------------------------------------------------------|

d--12-11-12-9------14-13-14-11--------|
A-------------12-9-------------14-----|
F---------------------------------16--|
C-------------------------------------|
G-------------------------------------|
D-------------------------------------|

d--16-15-16-12----------------------12--16-15-16-12----------------------12-|
A--------------12----------------12-----------------12----------------12----|
F-----------------13----------13-----------------------13----------13-------|
C--------------------14-13-14-----------------------------14-13-14----------|
G---------------------------------------------------------------------------|
D---------------------------------------------------------------------------|

d--16-15-16-12-------18-17-18-14-------19-18-19-16------------|
A--------------12----------------14----------------19-16-19^--|
F-----------------13----------------15------------------------|
C-------------------------------------------------------------|
G-------------------------------------------------------------|
D-------------------------------------------------------------|

Riff 8...

d------------------------------------------------------------------|
A------------------------------------------------------------------|
F--9-----------9-----------9-----------9--12----------------12-----|
C--7-7-7-7-7-7-7-7-7-7-7-7-7-7-7-7-7-7-7--10-10-10-10-10-10-10-12--|
G--------------------------------------------------------------10--|
D------------------------------------------------------------------|

d---------------------------|
A---------------------------|
F--12----------------12-12--|
C--10-10-10-10-10-10-10--9--|
G---------------------------|
D---------------------------|

d------------------------------------------------------------------|
A------------------------------------------------------------------|
F--9-----------9-----------9-----------9--12----------------12-----|
C--7-7-7-7-7-7-7-7-7-7-7-7-7-7-7-7-7-7-7--10-10-10-10-10-10-10-12--|
G--------------------------------------------------------------10--|
D------------------------------------------------------------------|

d---------------------------|
A---------------------------|
F--12----------------12-12--|
C--10-10-10-10-10-10-10--9--|
G---------------------------|
D---------------------------|


d-----------------------------------------------------------|
A-----------------------------------------------------------|
F--6-----------6-----------6-----------6-4-9-----------9----|
C--4-4-4-4-4-4-4-4-4-4-4-4-4-4-4-4-4-4-4-2-7-7-7-7-7-7-7-9--|
G--------------------------------------------------------7--|
D-----------------------------------------------------------|

d-------------------|
A-------------------|
F--9-----------9-9--|
C--7-7-7-7-7-7-7-6--|
G-------------------|
D-------------------|

d-------------------------------------------|
A-------------------------------------------|
F--6-----------6-----------6-----------6-4--|
C--4-4-4-4-4-4-4-4-4-4-4-4-4-4-4-4-4-4-4-2--|
G-------------------------------------------|
D-------------------------------------------|

d-----------------------------------------------|
A--15-14-12-----14-12--------12-----------------|
F-----------14--------14-12-----13-12-11--------|
C------------------------------------------12---|
G-----------------------------------------------|
D-----------------------------------------------|
                                           ph.

Solo being worked on...


end of solo...
                                                         ^
d---------------------------------------------------^----^--|
A----------------------12\------------/12----15^--15^--15^--|
F--14\----/12\----/14-----\--/14\----/----------------------|
C-----\--/----\--/---------\/----\--/-----------------------|
G------\/------\/-----------------\/------------------------|
D-----------------------------------------------------------|
   do dives with tremolo arm                 ph.       ph.

d--19-15-17-14-15-12-14-10--|
A---------------------------|
F---------------------------|
C---------------------------|
G---------------------------|
D---------------------------|

RIFF 3...

d------------------------------------------------------|
A------------------------------------------------------|
F------------------------------------------------------|
G----------12-9-7--5----------12-9--8-9------8-9-7-----|
C--2-2---2-10-7-5--3--2-2-2-2-10-7------9-10-------10--|
D--0-0---0------------0-0-0-0--------------------------|
   pm.....            pm.....

d------------------------------------------------------|
A------------------------------------------------------|
F------------------------------------------------------|
G----------12-9-7--5----------12-9--8-9------8-9-7-----|
C--2-2---2-10--7-5--3-2-2-2-2-10-7------9-10-------10--|
D--0-0---0------------0-0-0-0--------------------------|

RIFF 4...

d-------------12----10-9--------------------|
A-----9-10---------------12^V10--9-9^v------|
F--11------11----11--------------------11---|
G-------------------------------------------|
C-------------------------------------------|
D-------------------------------------------|

d-------------12----10-9------------^------|
A-----9-10---------------12^V10--9-9^------|
F--11------11----11------------------------|
G------------------------------------------|
C------------------------------------------|
D------------------------------------------|

d-------------12----10-9--------------------|
A-----9-10---------------12^V10--9-9^v------|
F--11------11----11--------------------11---|
G-------------------------------------------|
C-------------------------------------------|
D-------------------------------------------|

d-------------12----10-9----------------21-16---------|
A-----9-10---------------------17-21-17-------17------|
F--11------11----11---------18-------------------18---|
G-----------------------------------------------------|
C-----------------------------------------------------|
D-----------------------------------------------------|

RIFF 4...

d-------------12----10-9--------------------|
A-----9-10---------------12^V10--9-9^v------|
F--11------11----11--------------------11---|
G-------------------------------------------|
C-------------------------------------------|
D-------------------------------------------|

d-------------12----10-9------------^------|
A-----9-10---------------12^V10--9-9^------|
F--11------11----11------------------------|
G------------------------------------------|
C------------------------------------------|
D------------------------------------------|
                                   ph.                         

d-------------12----10-9--------------------|
A-----9-10---------------12^V10--9-9^v------|
F--11------11----11--------------------11---|
G-------------------------------------------|
C-------------------------------------------|
D-------------------------------------------|

d-------------12----10-9----------------21-16---------|
A-----9-10---------------------17-21-17-------17------|
F--11------11----11---------18-------------------18---|
G-----------------------------------------------------|
C-----------------------------------------------------|
D-----------------------------------------------------|

comments are welcome. tab for the keyboard outro coming soon...

            
            
Suggest correction
Creating personal tab
Creating personal tab
You can edit any tab online and save it as your Personal.

You can edit, replace or remove any tab part or add personal notes – all changes will be seen only by you.

Personal tabs can be accessed anytime from any device, even offline.
Learn more »
comments
print report bad tab
5 comments total. Showing first comments.
0 reply
cincit2 116 Oct 24, 2006 06:58 AM

This is my first proper tab, so there may be mistakes...

Rate!!!

0 reply
rocker301 10 Sep 09, 2007 05:42 PM

very good!

0 reply
AKGCD4LIFE 10 Aug 01, 2008 07:42 AM

hey umm

just a suggestion so dont kill me for it XD

if its more than the solo can you plz take out the word solo in the tab name??

it would help alot of people go to this tab because they might think its just the solo and not the whole song for one guitar

just a suggestion =D!!
AfroKidGuitarist

guest
You may want to rate the tab now too:
select rating
Wanna post a correction for this tab? Suggest correction