Oops, an error
Loading. Please wait.

Living Dead Beat Tab

version 1
version 1
17,259 views 3 this week
4 commentsread comments
1 2 3 4 5
excellent!
x 4
add to favorites
launch autoscroll
font size
0
reset
how to read this tab
guitar tuner
Tab Pro tools
  • play this tab
  • loop segment
  • change instrument
  • show fretboard
  • metronome
×
Best way to learn
"Living Dead Beat"
Autoscroll
slow
fast
+/-
esc
set tempo
stop
Contributor
Difficulty
Tuning
intermediate
C G C F A D
This part comes before the solo.

Part 1:
|12-7-0-10-12-0-0-10-12-0-19-0-17-14----14--|
|------------------------------------15-----|
|-------------------------------------------|  x2
|-------------------------------------------|
|-------------------------------------------|
|-------------------------------------------|

Part 2:
|-------------------------14-17----17-14-------|
|-17-15----14-15----17-15-------15-------17-15-|
|-------14-------14----------------------------|
|----------------------------------------------|
|----------------------------------------------|
|----------------------------------------------|

Part 3:
|-12-7-0-10-12-14-17-14----0-14-15----0------------------------|
|-----------------------15---------13--------------------------|
|--------------------------------------------------------------|
|--------------------------------------------------------------|
|--------------------------------------------------------------|
|--------------------------------------------------------------|

Repeat parts 1 and 2

Part 4:
|-14-17-14----0-14-11----0-11-0----6-8-5---8-6-5--------5-10-8----------8-|
|----------15---------13--------12-------7-------7---7---------10----10---|
|--------------------------------------------------8--------------11------|
|-------------------------------------------------------------------------|
|-------------------------------------------------------------------------|
|-------------------------------------------------------------------------|

|-8-11----------11-17-14----------21-17~~|
|------13----13----------14----14--------|
|---------14----------------17-----------|
|----------------------------------------|
|----------------------------------------|
|----------------------------------------|
comments
print report bad tab
4 comments total. Showing first comments.
0 reply
zjmellet wrote on May 5 2008, 05:03 pm

This is my first tab. I'm pretty sure it's right.

0 reply
deaththrashcore wrote on May 6 2008, 08:12 pm

Sounds okay to me.

0 reply
mrdrmegna wrote on August 19 2008, 11:35 am

this is right out of the rock house method book

I want to post or [tab]
guest
You may want to rate the tab now too:
select rating
Please do not post tabs as comments. Select "correction" instead!