Oops, an error
Loading. Please wait.

Living Dead Beat Bass Tab

version 2
version 2
4,603 views 1 this week
3 commentsread comments
1 2 3 4 5
excellent!
x 5
add to favorites
launch autoscroll
font size
0
reset
guitar tuner
Autoscroll
slow
fast
+/-
esc
set tempo
stop
Help us to improve Ultimate-Guitar.com Take our survey!
×
Author
madbass 615
-----------------------------------------------------------------------
LIVING DEAD BEAT – Children of Bodom
-----------------------------------------------------------------------

Tabbed By: madbass
e-mail: madbass@merr.com

This tab made for 4 string bass instead of 5 string bass

Tuning: Drop-C - C G C F


10 measures of keyboard intro, then...

Intro
     				       2x
F||-----------------|------------------||
C||o----------------|-----------------o||
G||o----------------|-----------------o||
C||--0—-0-----------|------------------||

F|-------------------|------------------|
C|-------------------|------------------|
G|-------------------|------------------|
C|-0-0-0-0--0-0-0-0--|------------------|

F|---------------------|----------------|
C|---------------------|----------------|
G|---------------------|----------------|
C|-0-0-0-0--0-0-0-0-0--|----------------|

(End of Intro)
Pre-Verse 1:
F||-----------------------------|---------------------------|
C||o----------------------------|---------------------------|
G||o----------------------------|---------------------------|
C||--0-0-—0-0--0—-0-0—-0-0---0--|-0-0-—0-0--0--0-0—0-0-0-0--|

        						   2x
F|---------------------------|-----------------------------||
C|---------------------------|----------------------------o||
G|---------------------------|-0-0--0-0--0--1-1-1--3-3-3--o||
C|-0-0-—0-0--0--0-0—-0-0--0--|--—-----—---—-----—----------||

LOOK OUT!
                                                                   2x
F||------------------------------|---------------------------------||
C||o-----------------------------|--------------------------------o||
G||o-----------------------------|----------------1-1-1-1-3-3-3-3-o||
C||--0-0-0-0--0-0--7-7-7-7--7-7--|--0-0-0-0--0-0-------------------||

F|------------------------------|---------|----------|--------------|
C|------------------------------|---------|----------|--------------|
G|------------------------------|---------|----------|------5-5-5-5-|
C|--0-0-0-0--0-0--7-7-7-7--7-7--|-0-------|----------|--------------|

Verse 1:
F||-------------------------------|------------------------------|
C||o------------------------------|------------------------------|
G||o------------------------------|----------------------5-5-5-5-|
C||---0-0-0-0-4---0-0-0-0--0-0-0--|---0-0-0-3---0-0-0-0----------|

	     								                                                        2x
F|------------------------------|-------------------------------||
C|------------------------------|------------------------------o||
G|------------------------------|---0-0-0-0---0-1-1-1---3-3-3--o||
C|--0-0-0-0-4---0-0-0-0--0-0-0--|-------------------------------||

										                                                           2x
F||------------------------------|---------------------------------||
C||o-----------------------------|--------------------------------o||
G||o-----------------------------|---------------1-1-1-1-3-3-3-3--o||
C||--0-0-0-0--0-0--7-7-7-7--7-7--|-0-0-0-0--0-0—-------------------||

F|------------------------------|------------------------------|
C|------------------------------|------------------------------|
G|------------------------------|---------------------5-5-5-5--|
C|--0-0-0-0-4---0-0-0-0--0-0-0--|--0-0-0-3---0-0-0-0-----------|

F|------------------------------|-----------------------------|
C|------------------------------|-----------------------------|
G|------------------------------|--0-0-0-0---0-1-1-1---3-3-3--|
C|--0-0-0-0-4---0-0-0-0--0-0-0--|-----------------------------|

F|--------------------------|-----------------------------|
C|--------------------------|-----------------------------|
G|--------------------------|---------------------5-5-5-5-|
C|----0—--0—--0-0-0--0-0-0--|---0-0-0-3---0-0-0-0---------|

F|-------------------------------|----------------------------|
C|-------------------------------|----------------------------|
G|-------------------------------|---0-0-0-0---0-5-5-5--0-0-0-|
C|--0-0-0-0-4----0-0-0-0--0-0-0--|----------------------------|

Chorus:
F|---------|---------------------------|---------|-----------------|
C|---------|-------------------0-0-0-0-|---------|-----------------|
G|-1---0---|---------------------------|---------|-----------------|
C|---------|-0—-0—-0—-0-—0--0----------|-5---8---|-0-0-0-0-0-0-0-0-|

F|---------|-----------------|---------|------------------|
C|---------|-----------------|---------|------------------|
G|-3---2---|-----------------|-0---2---|--3---5-5---2-2---|
C|---------|-2-2-2-2-2-2-2-2-|---------|------------------|

F|------------------|------------------------|------------------|
C|------------------|------------------------|------------------|
G|------------------|----------------3-------|----------2--2----|
C|--2—-2----0—-0----|--2—-2----2-4-5----4-5/-|--2—-2-----—------|

F|------------------------|------------------|------------------------|
C|------------------------|------------------|------------------------|
G|--3—-3------------------|------------------|----------------2-------|
C|---------0---3—-3---0---|--2—-2----0--0----|--2—-2----2-4-5----4-5/-|

F|------------------|-------------------------|------------|
C|------------------|-------------5—-5--------|------------|
G|----------2—-2----|--3—-3---------------5---|------------|
C|--2—-2------------|---------0---------------|--2\--------|

Pre-Verse 2:
F||-----------------------------|---------------------------|
C||o----------------------------|---------------------------|
G||o----------------------------|---------------------------|
C||--0-0-—0-0--0—-0-0—-0-0---0--|-0-0-—0-0--0--0-0—0-0-0-0--|

						          2x
F|---------------------------|----------------------------||
C|---------------------------|---------------------------o||
G|---------------------------|-0-0--0-0--0--1-1-1--3-3-3-o||
C|--0-—0-0--0—-0-0—-0-0---0--|----------------------------||

F|-----------|
C|-----------|
G|-----------|
C|---0---0---|

Verse 2:
F|------------------------------|------------------------------|
C|------------------------------|------------------------------|
G|------------------------------|----------------------5-5-5-5-|
C|--0-0-0-0-4---0-0-0-0--0-0-0--|---0-0-0-3---0-0-0-0----------|

F|------------------------------|------------------------------|
C|------------------------------|------------------------------|
G|------------------------------|---0-0-0-0---0-1-1-1---3-3-3—-|
C|--0-0-0-0-4---0-0-0-0--0-0-0--|------------------------------|

F|------------------------|------------------------------|
C|------------------------|------------------------------|
G|------------------------|---------------------5-5-5-5--|
C|--0---0---0-0-0-—0-0-0--|---0-0-0-3---0-0-0-0----------|

F|------------------------------|-----------------------------|
C|------------------------------|-----------------------------|
G|------------------------------|---0-0-0-0---0-1-1-1—-3-3-3--|
C|--0-0-0-0-4---0-0-0-0--0-0-0--|-----------------------------|

2nd Half of Chorus:
F|------------------|------------------------|----------------|
C|------------------|------------------------|----------------|
G|------------------|----------------2-------|---------2—-2---|
C|--2—-2----0--0----|--2--2----2-4-5----5-4/-|--2—-2----------|

F|------------------|------------------|------------------------|
C|------------------|------------------|------------------------|
G|--3—3-------------|------------------|----------------2-------|
C|-------0—-5—-5—0--|--2—-2----0--0----|--2--2----2-4-5----5-4/-|

F|----------------|------------------|
C|----------------|------------------|
G|---------2—-2---|--3—3-------------|
C|--2—-2----------|-------0—-5—-5—7--|

Beginning of the Breakdown Section:
F|-------------------------|-------------------------|
C|---------------5/7---8\7-|---------------5/7---3/5-|
G|-------------------------|-------------------------|
C|--0-0---0-0--------------|--0-0---0-0--------------|

F|-----------|-----------|-----------|-----------|
C|-----------|-----------|-----------|-----------|
G|-----------|-----------|-----------|-----------|
C|--0--------|-(0)-------|--0--------|-(0)-------|

		             3x
F||--------------------------||-----------------------------|
C||o------------------------o||-----------------9/10---9/10-|
G||o--—--—-----—--—--—--—---o||-----------------------------|
C||--2—-2—-2—-2—-2—-2-—2—-2--||--2—-2—-2—-2—-2--—-----------|

(Keyboard Solo)              2x
F||--------------------------||
C||o------------------------o||
G||o------------------------o||
C||--2—-2—-2—-2—-2—-2-—2—-2--||

F|--------------------------|--------------------------|
C|--------------------------|--------------------------|
G|--------------------------|--------------------2--2--|
C|--0—-0—-0—-0—-0—-0--0--0--|--2—-2—-2--2--5—-5--------|

                             2x
F||--------------------------||
C||o------------------------o||
G||o------------------------o||
C||--2—-2—-2—-2—-2—-2-—2—-2--||

F|--------------------------|--------------------------|
C|--------------------------|--------------------------|
G|--------------------------|--------------2--2--2--2--|
C|--0—-0—-0—-0—-0—-0--0—-0--|--2—-2—-2—-2—--—---—-—----|

F|--------------------------|-----------------------|
C|--------------------------|-----------------------|
G|--2--2--2--2--2--2--2--2--|--2--2--2--2--3--------|
C|--------------------------|-----------------------|

(Guitar & Keyboard Solo)				    10x
F||----------------------------|----------------------------||
C||o---------------------------|---------------------------o||
G||o----------------5/7----8\7-|----------------5/7----3/5-o||
C||--0-0---0-0---0------0------|--0-0---0-0---0-----0-------||

Chorus:
F|---------|---------------------------|---------|-----------------|
C|---------|-------------------0-0-0-0-|---------|-----------------|
G|-1---0---|---------------------------|---------|-----------------|
C|---------|-0—-0—-0—-0-—0--0----------|-5---8---|-0-0-0-0-0-0-0-0-|

F|---------|-----------------|---------|------------------|
C|---------|-----------------|---------|------------------|
G|-3---2---|-----------------|-0---2---|--3---5-5---2-2---|
C|---------|-2-2-2-2-2-2-2-2-|---------|------------------|

F|------------------|------------------------|------------------|
C|------------------|------------------------|------------------|
G|------------------|----------------3-------|----------2--2----|
C|--2—-2----0—-0----|--2—-2----2-4-5----4-5/-|--2—-2-----—------|

F|------------------------|------------------|------------------------|
C|------------------------|------------------|------------------------|
G|--3—-3------------------|------------------|----------------2-------|
C|---------0---3—-3---0---|--2—-2----0--0----|--2—-2----2-4-5----4-5/-|

F|------------------|-------------------------|------------|------------|
C|------------------|-------------5—-5--------|------------|------------|
G|----------2—-2----|--3—-3---------------5---|------------|------------|
C|--2—-2------------|---------0---------------|--2---------|-(2)--------|

F|-------------------|---------------------------|------------------||
C|-------------------|---------------------------|------------------||
G|-------------------|---------------------------|------------------||
C|--2--2-------------|--2-2-2-2--2-2-2-2-2-------|-(2)--------------||

END
Suggest correction new What's this?
You can suggest a correction to this tab. Community and Mods will review your correction and vote to approve or reject it.
comments
print report bad tab
3 comments total.
0 reply
stumpyishere 51 wrote on September 8 2006, 09:22 pm

pretty damn good tab....a couple of things slightly wrong but still very good

0 reply
madbass 615 wrote on September 10 2006, 07:11 pm

Thanks! Yeah, I've gotta re-look some things and I'll keep this tab updated, you can count on that.

0 reply
metallicax6 277 wrote on November 24 2007, 03:25 pm

Whoa kickass. It's for a 4-string bass, isn't it? So why the "instead of 5-string"?

Props, man. Props. 5*

guest
You may want to rate the tab now too:
select rating
Please do not post tabs as comments. Select "correction" instead!