Oops, an error
Loading. Please wait.

Living Dead Beat Tab

version 2
version 2
5,840 views 1 this week
7 commentsread comments
1 2 3 4 5
x 6
add to favorites
launch autoscroll
font size
0
reset
how to read this tab
guitar tuner
Autoscroll
slow
fast
+/-
esc
set tempo
stop
Help us to improve Ultimate-Guitar.com Take our survey!
×
Difficulty
Tuning
intermediate
C G C F A D
This song is OK to play but has a wide stretch in section 3

Intro

Synth Janne
D----------17-17-------15-15--|-----------------------------|
A----15-15-------15-15--------|--15-15-18-18-13*-13*-17-17--|
F-----------------------------|-----------------------------|
C-----------------------------|-----------------------------|
G-----------------------------|-----------------------------|
C-----------------------------|-----------------------------|
*can be played at the 17th on the F string

Guitar 1 Alexi
D-----------------------------|-----------------------------|
A-----------------------------|-----------------------------|
F-----------------------------|-----------------------------|
C-----------------------------|-----------------------------|
G-----------------------------|-----------------------------|
C-----------------------------|-----------------------------|

Synth Janne
D----------17-17-------15-15--|-----------------------------|
A----15-15-------15-15--------|--15-15-18-18-17-17----------|
F-----------------------------|--------------------14-14----|
C-----------------------------|-----------------------------|
G-----------------------------|-----------------------------|
C-----------------------------|-----------------------------|

Guitar 1 Alexi
D-----------------------------|-----------------------------|
A-----------------------------|-----------------------------|
F-----------------------------|-----------------------------|
C-----------------------------|-----------------------------|
G-----------------------------|-----------------------------|
C-----------------------------|-----------------------------|

Synth Janne
D----------17-17-------15-15--|-----------------------------|
A----15-15-------15-15--------|--15-15-18-18-13*-13*-17-17--|
F-----------------------------|-----------------------------|
C-----------------------------|-----------------------------|
G-----------------------------|-----------------------------|
C-----------------------------|-----------------------------|
*can be played at the 17th on the F string

Guitar 1 Alexi
D-----------------------------|-----------------------------|
A-----------------------------|-----------------------------|
F-----------------------------|-----------------------------|
C----0-0----------------------|-----------------pickslide---|
G----0-0----------------------|-----------------------------|
C----0-0----------------------|-----------------------------|
PM   - -

Synth Janne
D----------17-17-------15-15--|-----------------------------|
A----15-15-------15-15--------|--15-15-18-18-17-17----------|
F-----------------------------|--------------------14-14----|
C-----------------------------|-----------------------------|
G-----------------------------|-----------------------------|
C-----------------------------|-----------------------------|

Guitar 1 Alexi
D-----------------------------|-----------------------------|
A-----------------------------|-----------------------------|
F--------------3.1(NH)--------|-----------------------------|
C----0-0-------3.1(NH)--------|-----------------------------|
G----0-0----------------------|-----------------------------|
C----0-0----------------------|-----------------------------|
PM   - -       Pull up on bar


Synth Janne
D----------17-17-------15-15--|-----------------------------|
A----15-15-------15-15--------|--15-15-18-18-13*-13*-17-17--|
F-----------------------------|-----------------------------|
C-----------------------------|-----------------------------|
G-----------------------------|-----------------------------|
C-----------------------------|-----------------------------|
*can be played at the 17th on the F string

Guitar 1 Alexi
D-----------------------------|-----------------------------|
A-----------------------------|-----------------------------|
F-----------------------------|-----------------------------|
C----0000--0000---------------|-----------------------------|
G----0000--0000---------------|-----------------------------|
C----0000--0000---------------|-----------------------------|
PM   ----  ----

Synth Janne
D----------17-17-------15-15--|-----------------------------|
A----15-15-------15-15--------|--15-15-18-18-17-17----------|
F-----------------------------|--------------------14-14----|
C-----------------------------|-----------------------------|
G-----------------------------|-----------------------------|
C-----------------------------|-----------------------------|

Guitar 1 Alexi
D-----------------------------|-----------------------------|
A-----------------------------|-----------------------------|
F-----------------------------|-----------------------------|
C----0000-00000---------------|-----------------------------|
G----0000-00000---------------|-----------------------------|
C----0000-00000---------------|------------------------slide|
PM   ---- -----

Section 2

Guitar 1 Alexi
D-----------------------------|-----------------------------|
A-----------------------------|-----------------------------|
F---------------------------x3|-----------------------------|
C-----------------------------|--------------------3-----5--|
G--0-0--0-0--0--0-0--0-0--0---|--0-0--0-0--0---1-1-1-3-3-3--|
C--0-0--0-0--0--0-0--0-0--0---|-----------------------------|
PM - -  - -  -  - -  - -  -      - -  - -  -   - -   - -

Repeat this section twice

Section 3

Guitar 1 Alexi
D-----------------------------|-----------------------------|
A-----------------------------|-----------------------------|
F-----------------------------|-----------------------------|
C-------------------3-2---2-3-|--------------------------2-3|
G----7-3-0--3-5---0-----3-----|--7-3-0--3-5--0-5-3-0-3-5----|
C--0--------------------------|0----------------------------|

Repeat 3 times

Guitar 1 Alexi
D-------|
A-------|
F-------|
C--3-3--|
G-------|
C-------|

Section 4

Guitar 1 Alexi
D-----------------------------|-----------------------------|
A-----------------------------|-----------------------------|
F-----------------------------|-----------------------------|
C-----------------------------|---------------------7-7-7-7-|x3
G-----------------------------|---------------------5-5-5-5-|
C-0-0-0-0-3wv-0-0-0-0--0-0-0-0|-0-0-0-0-2wv-0-0-0-0---------|

Guitar 1 Alexi
D-----------------------------|-----------------------------|
A-----------------------------|-----------------------------|
F-----------------------------|-----------------------------|
C-----------------------------|-----------------------------|
G-----------------------------|-0-0-0-0-3wv-0-0-0-0--1-1-1-1|
C-0-0-0-0-3wv-0-0-0-0--0-0-0-0|-----------------------------|

I'll do more later

Have fun
Suggest correction
comments
print report bad tab
7 comments total. Showing first comments.
0 reply
Iceman0050565 114 Jan 15, 2007 01:00 PM

I forgot to mention that NH means natural harmonic and wv means wide vibrato

0 reply
metallicax6 83 Jun 22, 2007 12:34 AM

Can you please tab the rest of the song? You don't have the chorus or the pre-chorus (my favorite riff in the song), and neither of the guitar solos or the keyboard solo. I'd greatly appreciate it, as this is one of my favorite C.O.B. songs, and I can't learn by ear worth shit. :(( I noticed someone tabbed the 1st guitar solo already though.

+1 reply
lyingfromyou 144 Sep 29, 2007 01:03 PM

I don't understand how this got 4 stars.. it consists of like 1/50th of the song and it isn't even correct

guest
You may want to rate the tab now too:
select rating
Wanna post a correction for this tab? Suggest correction