Oops, an error
Loading. Please wait.

Living Dead Beat Bass Tab

version 3
version 3
481 views 1 this week
no commentswrite comment
1 2 3 4 5
please rate
add to favorites
launch autoscroll
font size
0
reset
guitar tuner
Autoscroll
slow
fast
+/-
esc
set tempo
stop
Help us to improve Ultimate-Guitar.com Take our survey!
×
Author
Difficulty
Tuning
intermediate
C G C F A D
Tuning- Drop C
CGCF
Low to high

Intro
Keyboard pulse-keyboard intro

F|-----------------------------------------------|
C|-----------------------------------------------|
G|-----------------------------------------------|
C|0-0-----------0-0------0000-00000----0000-00000|
 |
F|-----------------------------------|-----------------------|
C|-----------------------------------|-----------------------|
G|-----------------------------------|-----------------------|
C|\\\00-0--0-00-0--0-00-0--0-00000000|00-0--0-00-0--0-00-0--0|
 |
F|-------------------|
C|----------2-3---3-5|
G|00-0-0-1-1---3-3---|
C|-------------------|

Nifty Riff
F|--------------------------------------------|
C|--------------------------------------5-----|
G|-5-3-0-3-5--8-7--8-7--5-3-0-3-5--8-7-8-8-7-8| X2
C|0----------0---10----0----------0-----------|


Verse
F|-------------------------------------------------------------------|
C|-------------------------------------------------------------------|
G|------------------------------/6666---------------000-3p0-0-000-111|
C|0000-3-0-000-000---000-2-0-000-----000-3-0-000-000-----------------|

Repeate nifty riff

Pre chorous

"As long as the twilight bends"
F|-----------------------------|----------|
C|-----------------------------|----------|
G|7-7-7-8--8-7---(5)--(5)--(5)-|----------|
C|-------------00---00---00--00|33--7-10-8|

Thats all ive got for now, ill have the chorous and the gtr. solo bckground up soon.
Suggest correction
Give kudos to tab author, rate the tab!
1 2 3 4 5
comments
print report bad tab
guest
You may want to rate the tab now too:
select rating
Wanna post a correction for this tab? Suggest correction