Oops, an error
Loading. Please wait.

Living Dead Beat Guitar Pro

16,040 views 1 this week
4 commentsread comments
1 2 3 4 5
accurate
x 10
add to favorites
guitar tuner
Autoscroll
slow
fast
+/-
esc
set tempo
stop
Help us to improve Ultimate-Guitar.com Take our survey!
×
Filesize
Instruments
122 Kb
rhythm guitar #1, rhythm guitar #2, lead guitar, bass, percussion, keyboard #1, keyboard #2
"Living Dead Beat"
demo version
Play now

or get full version for Free

Get full version now!
To learn and play this song
in Tab Pro, start free trial
Start free trial

or get $10 off Welcome Bonus

Get welcome bonus
Get access to Tab Pro version of “Living Dead Beat”!
Tab Pro is a premium guitar tab service, available on PC, Mac, iOS and Android
START FREE TRIAL
Your download will start in 7 seconds
×
Enter for a chance to win a FREE lesson from The Doors’ guitarist Robby Krieger plus other great prizes!
To download “Living Dead Beat” Guitar Pro tab click button below
Please note that you must have Guitar Pro software installed on your
computer in order to view this file.
comments
report bad tab
4 comments total. Showing first comments.
0 reply
006schecter 45 wrote on June 4 2007, 07:13 am

finally a tab with the solo, good work.
just a note about the harmonics before the second solo.

D-------------------------------|--------------------------------
A-------------------------------|--------------------------------
F-------------------------------|--------------------------------
C--------------------7/8---10\9-|--------------------7/8---------
G--------------------5/6----8\7-|--------------------5/6----8/10-
C-00-[4.8]-00-[4]-00-----00-----|-00-[4]-00-[3.1]-00-----00-8/10-

D--------------------------------|---------------------------------
A--------------------------------|---------------------------------
F--------------------------------|---------------------------------
C---------------------7/8---10\9-|----------------------7/8---------
G---------------------5/6----8\7-|----------------------5/6----8/10-
C-00-[3.1]-00-[2.8]-00-----00----|-00-[2.5]-00-[1.9]-00-----00-8/10-

I learned it this way, and it sounds pretty good. it might be a bit hard to find the right spot but I tried to pin it down as close as i could in the tab.

0 reply
Metal_Militia2 1,387 wrote on June 8 2007, 02:47 pm

I( give it 5 stars, nice job on the solo! You are amazing if you did that by ear!

0 reply
methebob 131 wrote on August 2 2007, 08:22 pm

the verse is REALLY off

guest
You may want to rate the tab now too:
select rating
Please do not post tabs as comments. Select "correction" instead!