Oops, an error
Loading. Please wait.

Needled 24 7 solo tab

version 2
version 2

Solo

Whole song

2,336 views 1 this week
no commentswrite comment
1 2 3 4 5
2 more votes to show rating
add to favorites
×
Save as Personal and add changes to this tab that will be seen only by you. Learn more ›
×
You can save this tab as Personal to edit and correct it or add notes. All changes will be seen only by you. Learn more »
launch autoscroll
font size
0
reset
how to read this tab
guitar tuner
edit
Autoscroll
slow
fast
+/-
esc
set tempo
stop
Author
Children of Bodom:
Needled 24/7
Tabbed by:Fretburner214
Tuning:D G C F A D

Key:
<-Depress whammy bar
(b)-Bend
/-Slide
h-Hammer-on
p-Pull-off
()-Tie
tr-Trill(series of hammer-ons and pull-offs)

Rhythm
d:------------------------------------------------------------------|
a:------------------------------------------------------------------|
f:------------------------------------------------------------------|
c:-3-3-3-3-5-5-5-5-7-7-7-7-7-7-7-7---------8-8-8-8-7-7-7-7-7-5-5-5--|
g:-1-1-1-1-3-3-3-3-5-5-5-5-5-5-5-5-6-6-6-6-6-6-6-6-5-5-5-5-5-3-3-3--|
d:---------------------------------4-4-4-4--------------------------|

Solo(1)
d:----15-17-15-------------------15-17-15----------20----23p20h23p20-----|
a:-18----------18-17-15(15)15-18----------18p17p16----16-------------21--|
f:-----------------------------------------------------------------------|
c:-----------------------------------------------------------------------|
g:-----------------------------------------------------------------------|
d:-----------------------------------------------------------------------|

(2)     tr     tr   tr
d:-20-22h23-17h18-10h11-|
a:----------------------|
f:----------------------|
c:----------------------|
g:----------------------|
d:----------------------|

(3)
d:-13-12-10----10-12-13-10-12-13-17-13-19-17-18-15-17-18-20-19-18-17--|
a:----------13--------------------------------------------------------|
f:--------------------------------------------------------------------|
c:--------------------------------------------------------------------|
g:--------------------------------------------------------------------|
d:--------------------------------------------------------------------|

(4)
d:----------------------------------|
a:-21-20-21-20-19-18-19-18----------|
f:-------------------------21-20-19-|
c:----------------------------------|
g:----------------------------------|
d:----------------------------------|

(5)                     (b)
d:------------<20-22-22---|
a:-----<18(18)------------|
f:-<19--------------------|
c:------------------------|
g:------------------------|
d:------------------------|


**Alternate Ending
                                                         T      T
d:-------------13h17p13----------13h17p13----------13h17-20-b17-19~----|
a:----------15----------15----15----------15----15---------------------|
f:-------14----------------14----------------14------------------------|
c:----15---------------------------------------------------------------|
g:-17------------------------------------------------------------------|
c:---------------------------------------------------------------------|

**I thought i'd add an alternate ending instead of playing bar 5,
you can play this instead. Its from the Needled 24/7 solo at Tuska(live)
Its a D minor arpeggio(i think, tell me if im wrong) along with some three-string 
in it, with a couple of taps added.

Hold the A on the 17 fret, then tap the C on the 20 fret, pull off back onto the A on 17 
then bend to the A to 1 1/2 steps, and finally, while keeping the A bent, tap the D 
(or C flat).
And there you go. Have fun!!

            
            
Suggest correction
Creating personal tab
Creating personal tab
You can edit any tab online and save it as your Personal.

You can edit, replace or remove any tab part or add personal notes – all changes will be seen only by you.

Personal tabs can be accessed anytime from any device, even offline.
Learn more »
Give kudos to tab author, rate the tab!
1 2 3 4 5
comments
print report bad tab
guest
You may want to rate the tab now too:
select rating
Wanna post a correction for this tab? Suggest correction