Oops, an error
Loading. Please wait.

Needled 24 7 Bass Tab

version 2
version 2

Whole song

2,957 views 1 this week
2 commentsread comments
1 2 3 4 5
please rate
add to favorites
launch autoscroll
font size
0
reset
guitar tuner
Autoscroll
slow
fast
+/-
esc
set tempo
stop
Help us to improve Ultimate-Guitar.com Take our survey!
×
Author
Needled 24-7 - Children of Bodom
Standard EADG Tuning
4 String

This is basically just the notes, not the actual timing. But I put in when each part 
to help out anyways.

00:00
G|--------------------|--3--2-|-------------------|--2--3--5-----|
D|--1--0--3-----1--0--|-------|-1--0--3-----1--0--|--------------|
A|-----------3--------|-------|----------3--------|--------------|
E|--------------------|-------|-------------------|--------------|

00:10
G|--------------------|-----------3--2--|--------------------|--2--3--5-----|
D|--1--0--3-----1--0--|--3--2--3--------|--1--0--3-----1--0--|--------------|
A|-----------3--------|-----------------|-----------3--------|--------------|
E|--------------------|-----------------|--------------------|--------------|

00:20
G|-----2--3--5--3--5--|-----------------------|
D|--0-----------------|--0--5--3--2--2--3-----|X2
A|--------------------|-----------------------|
E|--------------------|-----------------------|

00:30
G|--------------------|-----3-----3--|--------|-----|
D|--1--0--3-----1--0--|--5-----5-----|--1--0--|-----|X2
A|-----------3--------|--------------|--------|-----|
E|--------------------|--------------|--------|-----|

00:48                                X4
G|--7--5--7--6-----5--|-----7--5-----7--5-----7--5-----8--5-----|
D|--------------8-----|-----------------------------------------|
A|--------------------|--5--------5--------5--------5-----------|
E|--------------------|-----------------------------------------|

001:00 |----------->   X2   <-------------------------|
G|-----2--3--5--3--5--|--------------------|----------|
D|--0-----------------|--0--5--3--2--2--3--|----------|
A|--------------------|--------------------|--5-------|
E|--------------------|--------------------|----------|

01:10                              X3
G|-----7--5-----7--5-----7--5-----8--5-----|-----7--5-----7--5------------|
D|-----------------------------------------|---------------------77777777-|
A|--5--------5--------5--------5-----------|--5--------5------------------|
E|-----------------------------------------|------------------------------|

1:20
G|-----------5--3--|--3--5--7--5--|--7-----|
D|--0--2--3--------|--------------|--------|X2
A|-----------------|--------------|--------|
E|-----------------|--------------|--------|
1:38             X3
G|-----------------------7--|-------------------|
D|--------------------------|--8-----10---------|
A|--5--5--5--5--5--5--5-----|-----8------10-----|
E|--------------------------|-------------------|

01:50       |------------->   X2   <---------------------------|
G|--------------------|-----3-----3--|--------|----------------|
D|--1--0--3-----1--0--|--5-----5-----|--1--0--|--7--7--7-------|
A|-----------3--------|--------------|--------|----------------|
E|--------------------|--------------|--------|----------------|

02:10
G|-----------5--3--|--3--5--7--5--|--7-----|
D|--0--2--3--------|--------------|--------|X2
A|-----------------|--------------|--------|
E|-----------------|--------------|--------|

2:30
G|-----------------------------------|-----------------------------|
D|--8-----8--6--8-----8--9--8-----8--|--8--8--8--6--6--6--6--6-----|
A|-----8-----------8-----------8-----|-----------------------------|
E|-----------------------------------|-----------------------------|

2:45  x5
G|--------5--|--------------|--------5--|--------------|
D|--6--8-----|-----11--10---|--6--8-----|-----11--10---|
A|-----------|--9-----------|-----------|--9-----------|
E|-----------|--------------|-----------|--------------|

03:05
G|--------5--|--------------|--------5--|--------------|
D|--6--8-----|-----11--10---|--6--8-----|-----11--10---|
A|-----------|--9-----------|-----------|--9-----------|
E|-----------|--------------|-----------|--------------|

3:15   |------------->   X2   <-------------------------------|
G|-----2--3--5--3--5--|--------------------|-------3--5--8----|
D|--0-----------------|--0--5--3--2--2--3--|--0---------------|
A|--------------------|--------------------|------------------|
E|--------------------|--------------------|------------------|

03:26                X4                     X1
G|-----7--5-----7--5-----7--5-----8--5--|--5--7-----|
D|--------------------------------------|-----------|
A|--5--------5--------5--------5--------|-----------|
E|--------------------------------------|-----------|

03:37  |------>   X2   <---------------------|
G|-----------5--3--|--3--5--7--5--|--7-------|
D|--0--2--3--------|--------------|----------|
A|-----------------|--------------|----------|
E|-----------------|--------------|----------|

Outro
G|--7--5--3--|--5--7-----|
D|-----------|-----------|
A|-----------|-----------|
E|-----------|-----------|
Suggest correction
What's this?
You can suggest a correction to this tab. Community and Mods will review your correction and vote to approve or reject it.
comments
We did not receive enough feedback on this tab! Please rate:
print report bad tab
1 2 3 4 5
2 comments total.
0 reply
Warheart1188 620 wrote on January 15 2007, 05:56 pm

you do know that CoB tuned down a whole step when they wrote this song right?? so why transpose it in standard??

0 reply
Satan Man 1,448 wrote on June 8 2008, 07:41 am

Bodom play in CGCF so it would be easier to play if ya tabbed it in that tuning

guest
You may want to rate the tab now too:
select rating
Please do not post tabs as comments. Select "correction" instead!