Oops, an error
Loading. Please wait.

Next In Line tab

version 1
version 1

Whole song

Interactive

9,947 views 1 this week
2 commentsread comments
1 2 3 4 5
x 7
add to favorites
×
Save as Personal and add changes to this tab that will be seen only by you. Learn more ›
×
You can save this tab as Personal to edit and correct it or add notes. All changes will be seen only by you. Learn more »
launch autoscroll
font size
0
reset
how to read this tab
guitar tuner
backing track
0:00
0:00
edit
Autoscroll
slow
fast
+/-
esc
set tempo
stop
Next in Line - Children of Bodom
Dropped C tuning

~~~~~~~~~~~~~~~~~~~~~~~~~~~~~~~~~~~~~~~~~~~~~~~~~~~~~~~~~~~~~~~~~~

Guitar 1 (aka... Laiho)

           PM PM                PM PM                    
     E  E  E  E  E  E  E  E     E  E  E  E  E  E  E  E   
D||--------------------------|--------------------------|
A||--------------------------|--------------------------|
F||--------------------------|--------------------------|
C||--2--2--------2--5--2--2--|--------2--5--------0--5--|
G||--2--2--------------2--2--|--------------3--3--------|
C||--2--2--2--2--------2--2--|--2--2--------------------|


        PM PM                PM PM       PM PM        
  E  E  E  E  E  E  E  E     E  E  E  E  E  E  E  E   
--------------------------|--------------------------|
--------------------------|--------------------------|
--------------------------|--------------------------|
--2--2--------2--5--2--2--|--------2--5--------3--3--|
--2--2--------------2--2--|--------------------3--3--|
--2--2--2--2--------2--2--|--2--2--------2--2--3--3--|


        PM PM                PM PM                    
  E  E  E  E  E  E  E  E     E  E  E  E  E  E  E  E   
--------------------------|--------------------------|
--------------------------|--------------------------|
--------------------------|--------------------------|
--2--2--------2--5--2--2--|--------2--5--------0--5--|
--2--2--------------2--2--|--------------3--3--------|
--2--2--2--2--------2--2--|--2--2--------------------|


        PM PM                          PM PM                                  
  E  E  E  E  E  E  E  E     Q    Q    E  E  Q       Q    E   E  E  E  E  E   
--------------------------|-----------------------|--------------------------|
--------------------------|-----------------------|--------------------------|
--------------------------|-----------------------|--------------------------|
--2--2--------2--5--2--2--|------------------3----|--2-----------2-----------|
--2--2--------------2--2--|------------------3----|--2----5S--7--2--------7--|
--2--2--2--2--------2--2--|------------2--2--3----|--2----5S--7--2--0--0-----|


  E  E  E  E  E  E  E  E     Q    E   E  E  E  E  E   
--------------------------|--------------------------|
--------------------------|--------------------------|
--------------------------|--------------------------|
--------------------------|--------------------------|
--L-----7-----5--9--5--2--|--L----5S--7--2--------7--|
-----0-----0-----------2--|--L----5S--7--2--0--0-----|


  E  E  E  E  E  E  E  E     E  E  E  E  E  Q    E     E  E  E  E  E  E  Q     
--------------------------|-------------------------|-------------------------|
--------------------------|-------------------------|-------------------------|
--------------------------|-------------------------|-------------------------|
--------------------------|-------------------------|-------------------------|
--L-----7-----5--9--5--7--|--L--7--5--7--2--2----7--|--L-----7-----5--9--5----|
-----0-----0-----------7--|--L--7--5--7--2--2----L--|-----0-----0-------------|


  E  E  E  E  E  E  E  E     E  E  E  E  E  E  Q       Q    E   E  E  E  E  E   
--------------------------|-------------------------|--------------------------|
--------------------------|-------------------------|--------------------------|
--------------------------|-------------------------|--------------------------|
--2--2--------2--5--2--2--|--------2--5--------3----|--2-----------2-----------|
--2--2--------------2--2--|--------------------3----|--2----5S--7--2--------7--|
--2--2--0--0--------2--2--|--0--0--------0--0--3----|--2----5S--7--2--0--0-----|


  E  E  E  E  E  E  E  E     Q    E   E  E  E  E  E   
--------------------------|--------------------------|
--------------------------|--------------------------|
--------------------------|--------------------------|
--------------------------|--------------------------|
--L-----7-----5--9--5--2--|--L----5S--7--2--------7--|
-----0-----0-----------2--|--L----5S--7--2--0--0-----|


  E  E  E  E  E  E  E  E     E  E  E  E  E  E  E  E     E  E  E  E  E  E  Q     
--------------------------|--------------------------|-------------------------|
--------------------------|--------------------------|-----------------7-------|
--------------------------|-----------------------9--|--L-----9-----7-----7----|
--------------------------|--------------------------|-------------------------|
--L-----7-----5--9--5--7--|--L--7--5--7--2--------7--|--L-----7-----5--9--5----|
-----0-----0-----------7--|--L--7--5--7--2--0--0-----|-----0-----0-------------|


        PM PM                PM PM       PM PM                               
  E  E  E  E  E  E  E  E     E  E  E  E  E  E  Q       E  E  H        E  E   
--------------------------|-------------------------|-----------------------|
--------------------------|-------------------------|-----------------------|
--------------------------|-------------------------|-----------------------|
--2--2--------2--5--2--2--|--------2--5-------------|-----------------------|
--2--2--------------2--2--|--------------------3----|--2--2-----------4--4--|
--2--2--0--0--------2--2--|--0--0--------0--0--3----|--2--2-----------4--4--|


     PM       PM                                                  
  E  E  E  E  E  E  Q       W                   W                 
-------------------------|-------------------|-------------------|
-------------------------|-------------------|-------------------|
-------------------------|-------------------|-------------------|
-----------4-------------|-------------------|-------------------|
--------2-----4--2--4----|--L----------------|--L----------------|
-----4-------------------|-------------------|-------------------|


                             PM       PM                              
  E  E  H        E  E     E  E  E  E  E  E  Q       W                 
-----------------------|-------------------------|-------------------|
-----------------------|-------------------------|-------------------|
-----------------------|-------------------------|-------------------|
-----------------------|-----------4-------------|-------------------|
--2--2-----------4--4--|--------2-----3--2--2----|--L----------------|
--2--2-----------4--4--|-----4-------------------|-------------------|


    W                                              PM       PM PM       
    W                   E  E  H        E  E     E  E  E  E  E  E  Q     
---------------------|-----------------------|-------------------------|
---------------------|-----------------------|-------------------------|
--<>5----------------|-----------------------|-------------------------|
---------------------|-----------------------|-----------4-------------|
---------------------|--2--2-----------4--4--|--------2-----3--2--3----|
---------------------|--2--2-----------4--4--|-----4-------------------|


  W                   W                   E  E  H        E  E   
-------------------|-------------------|-----------------------|
-------------------|-------------------|-----------------------|
-------------------|-------------------|-----------------------|
-------------------|-------------------|-----------------------|
--L----------------|--L----------------|--2--2-----------4--4--|
-------------------|-------------------|--2--2-----------4--4--|


     PM       PM PM                                                 
  E  E  E  E  E  E  Q       H        H           H        H         
-------------------------|--------------------|--------------------|
-------------------------|--------------------|--------------------|
-------------------------|--------------------|--------------------|
-----------4--------4----|--L-----------------|-----------4--------|
--------2-----4--2--2----|--L--------5--------|--L--------2--------|
-----4-------------------|-----------5--------|--L-----------------|


  Q    E   E  E  E  E  E     E  E  E  E  E  E  E  E   
--------------------------|--------------------------|
--------------------------|--------------------------|
--------------------------|--------------------------|
--2-----------2-----------|--------------------------|
--2----5S--7--2--------7--|--L-----7-----5--9--5--2--|
--2----5S--7--2--0--0-----|-----0-----0-----------2--|


  Q    E   E  E  E  E  E     E  E  E  E  E  E  E  E     E  E  E  E  E  Q    E   
--------------------------|--------------------------|-------------------------|
--------------------------|--------------------------|-------------------------|
--------------------------|--------------------------|-------------------------|
--------------------------|--------------------------|-------------------------|
--L----5S--7--2--------7--|--L-----7-----5--9--5--7--|--L--7--5--7--2--2----7--|
--L----5S--7--2--0--0-----|-----0-----0-----------7--|--L--7--5--7--2--2----L--|


  E  E  E  E  E  E  Q       E  E  H        E  E     E  E  E  E  E  E  Q     
-------------------------|-----------------------|-------------------------|
-------------------------|-----------------------|-------------------------|
-------------------------|-----------------------|-------------------------|
-------------------------|-----------------------|--------2--5--------3----|
--L-----7-----5--9--5----|--2--2-----------2--2--|--------------------3----|
-----0-----0-------------|--2--2-----------2--2--|--0--0--------0--0--3----|


                             PM       PM PM                           
  E  E  H        E  E     E  E  E  E  E  E  Q       W                 
-----------------------|-------------------------|-------------------|
-----------------------|-------------------------|-------------------|
-----------------------|-------------------------|-------------------|
-----------------------|-----------4-------------|-------------------|
--2--2-----------4--4--|--------2-----4--2--4----|--L----------------|
--2--2-----------4--4--|-----4-------------------|-------------------|


                                                 PM          PM       
  W                   E  E  H        E  E     E  E  E  E  E  E  Q     
-------------------|-----------------------|-------------------------|
-------------------|-----------------------|-------------------------|
-------------------|-----------------------|--------------------4----|
-------------------|-----------------------|-----------4-------------|
--L----------------|--2--2-----------4--4--|--------2-----3--2-------|
-------------------|--2--2-----------4--4--|-----4-------------------|


  W                   Q    Q    Q      Q        E  E  H        E  E   
-------------------|-------------------------|-----------------------|
-------------------|-------------------------|-----------------------|
--L----------------|-------------------------|-----------------------|
-------------------|-------------------------|-----------------------|
-------------------|-----------------<>5~----|--2--2-----------4--4--|
-------------------|-------------------------|--2--2-----------4--4--|


     PM          PM                                               
  E  E  E  E  E  E  Q       W                   W                 
-------------------------|-------------------|-------------------|
-------------------------|-------------------|-------------------|
-------------------------|-------------------|-------------------|
-----------4-------------|-------------------|-------------------|
--------2-----4--2-------|-------------------|-------------------|
-----4--------------4----|--L----------------|--L----------------|


                          PM PM                                         
  E  E  H        E  E     E  E  E  E  E  E  E  E     W                  
-----------------------|--------------------------|--------------------|
--5--5-----------7--7--|--------------------------|--------------------|
--6--6-----------7--7--|--------------------------|--------------------|
-----------------------|--------7--5-----------7--|--9~----------------|
-----------------------|--5--9--------7--5--9-----|--------------------|
-----------------------|--------------------------|--------------------|


                         PM PM       PM PM PM          PM PM                 
  W                   E  E  E  E  E  E  S  S  E     E  E  E  E  E  E  E  E   
-------------------|-----------------------------|--------------------------|
-------------------|-----------------------------|--------------------------|
-------------------|-----------------------------|-----------------9--8--7--|
--L----------------|--7--------7-----------------|--7--------7--------------|
-------------------|--5--------5-----------------|--5--------5--------------|
-------------------|-----0--0--------0--0--0--0--|-----0--0-----------------|


     PM PM       PM PM PM                                    
  E  E  E  E  E  E  S  S  E     E  E  E  E   E   E   E   E   
-----------------------------|------------------------------|
-----------------------------|------------------------------|
-----------------------------|------------------------------|
--7--------7-----------------|--9--9--9--7------------------|
--5--------5-----------------|--------------10--10--10--10--|
-----0--0--------0--0--0--0--|------------------------------|


     PM PM       PM PM PM          PM PM                 
  E  E  E  E  E  E  S  S  E     E  E  E  E  E  E  E  E   
-----------------------------|--------------------------|
-----------------------------|--------------------------|
-----------------------------|-----------------9--8--7--|
--7--------7-----------------|--7--------7--------------|
--5--------5-----------------|--5--------5--------------|
-----0--0--------0--0--0--0--|-----0--0-----------------|


     PM PM       PM PM PM                                 
  E  E  E  E  E  E  S  S  E      E  E  E  E  E  E  E  E   
-----------------------------|---------------------------|
-----------------------------|---------------------------|
-----------------------------|---------7-----------7-----|
--7--------7-----------------|------9-----9-----7-----7--|
--5--------5-----------------|--10-----------9-----------|
-----0--0--------0--0--0--0--|---------------------------|


  PM PM PM     PM  PM  PM  PM                PM PM PM PM  
  E  E  E  E   E   E   E   E     E  E  E  E  E  E  E  E   
------------------------------|--------------------------|
------------------------------|--------------------------|
------------------------------|--7--7--7-----------------|
--9--9--9--7------------------|-----------9--7--7--7--7--|
--------------10--10--10--10--|--------------------------|
------------------------------|--------------------------|


  PM PM PM     PM  PM  PM  PM                PM PM PM PM  
  E  E  E  E   E   E   E   E     E  E  E  E  E  E  E  E   
------------------------------|--------------------------|
------------------------------|--------------------------|
------------------------------|--7--7--7-----------------|
--9--9--9--7------------------|-----------9--7--7--7--7--|
--------------10--10--10--10--|--------------------------|
------------------------------|--------------------------|


  PM PM PM     PM  PM  PM  PM                PM PM PM PM  
  E  E  E  E   E   E   E   E     E  E  E  E  E  E  E  E   
------------------------------|--------------------------|
------------------------------|--------------------------|
------------------------------|--7--7--7-----------------|
--9--9--9--7------------------|-----------9--7--7--7--7--|
--------------10--10--10--10--|--------------------------|
------------------------------|--------------------------|


  PM PM PM     PM  PM  PM  PM                PM PM PM PM                      
  E  E  E  E   E   E   E   E     E  E  E  E  E  E  E  E     W                 
------------------------------|--------------------------|-------------------|
------------------------------|--------------------------|-------------------|
------------------------------|--7--7--7-----------------|-------------------|
--9--9--9--7------------------|-----------9--7--7--7--7--|--2----------------|
--------------10--10--10--10--|--------------------------|--2----------------|
------------------------------|--------------------------|--0----------------|


  W                   W                   W                 
-------------------|-------------------|-------------------|
-------------------|-------------------|-------------------|
-------------------|-------------------|-------------------|
--L----------------|--L----------------|--L----------------|
--L----------------|--L----------------|--L----------------|
--L----------------|--L----------------|--L----------------|


  \1       \1                                                             
  E  E  E  E  E  E  E  E     W                   E  E  E  E  E  E  E  E   
--------------------------|-------------------|--------------------------|
--------------------------|-------------------|--------------------------|
--------------------------|-------------------|--------------------------|
--2-----L--2--------------|--L----------------|--2--------2--------------|
--2-----L--2--------------|--L----------------|--2--------2--------------|
--2-----L--2--------------|--L----------------|--2--------2--------------|


                      Q    E   E  Q    E    E      E  E  Q    E  E  E  E   
-------------------|----------------------------|-------------------------|
-------------------|----------------------------|-------------------------|
-------------------|----------------------------|-------------------------|
-------------------|--2-----------2-------------|-------------------------|
-------------------|--2----5S--7--2----2s--10~--|--L--L--2----5--9--7--5--|
-------------------|--2----5S--7--2----2--------|--------2----------------|


                        W                             
  Q    E   E  Q    E    E     E  E  Q    E  E  E  E   
---------------------------|-------------------------|
---------------------------|-------------------------|
---------------------------|-------------------------|
--2-----------2------------|-------------------------|
--2----5S--7--2----2s--10--|--L--L--2----0--3--2--1--|
--2----5S--7--2----2-------|--------2----------------|


  Q    E   E  Q    E    E      E  E  Q    E  E  E  E   
----------------------------|-------------------------|
----------------------------|-------------------------|
----------------------------|-------------------------|
--2-----------2-------------|-------------------------|
--2----5S--7--2----2s--10~--|--L--L--2----5--9--7--5--|
--2----5S--7--2----2--------|--------2----------------|


                       W                                                        
  Q    E   E  Q    E   E     E  E  Q    E  E  E  E     Q    E   E  E  E  E  E   
--------------------------|-------------------------|--------------------------|
--------------------------|-------------------------|--------------------------|
--------------------------|-------------------------|--------------------------|
--2-----------2-----------|-------------------------|--2-----------2-----------|
--2----5S--7--2----2s--7--|--L--L--2----0--3--2--1--|--2----5S--7--2--------7--|
--2----5S--7--2----2------|--------2----------------|--2----5S--7--2--0--0-----|


  E  E  E  E  E  E  E  E     Q    E   E  E  E  E  E   
--------------------------|--------------------------|
--------------------------|--------------------------|
--------------------------|--------------------------|
--------------------------|--------------------------|
--L-----7-----5--9--5--2--|--L----5S--7--2--------7--|
-----0-----0-----------2--|--L----5S--7--2--0--0-----|


  E  E  E  E  E  E  E  E     E  E  E  E  E  Q    E     E  E  E  E  E  E  Q     
--------------------------|-------------------------|-------------------------|
--------------------------|-------------------------|-------------------------|
--------------------------|-------------------------|-------------------------|
--------------------------|-------------------------|-------------------------|
--L-----7-----5--9--5--7--|--L--7--5--7--2--2----7--|--L-----7-----5--9--5----|
-----0-----0-----------7--|--L--7--5--7--2--2----L--|-----0-----0-------------|


  E  E  E  E  E  E  E  E     E  E  E  E  E  E  Q       E  E  H        E  E   
--------------------------|-------------------------|-----------------------|
--------------------------|-------------------------|-----------------------|
--------------------------|-------------------------|-----------------------|
--2--2--------2--5--2--2--|--------2--5--------3----|-----------------------|
--2--2--------------2--2--|--------------------3----|--2--2-----------4--4--|
--2--2--0--0--------2--2--|--x--x--------0--0--3----|--2--2-----------4--4--|


     PM PM PM PM PM                                               
  E  E  E  E  E  E  Q       W                   W                 
-------------------------|-------------------|-------------------|
-------------------------|-------------------|-------------------|
-------------------------|-------------------|-------------------|
-----------4-------------|-------------------|-------------------|
--------2-----4--2--4----|--L----------------|--L----------------|
-----4-------------------|-------------------|-------------------|


                             PM PM PM PM PM                         SH     
  E  E  H        E  E     E  E  E  E  E  E  Q       H        Q      Q      
-----------------------|-------------------------|------------------------|
-----------------------|-------------------------|------------------------|
-----------------------|-------------------------|----------------<>4~----|
-----------------------|-----------4-------------|--L--------L------------|
--2--2-----------4--4--|--------2-----4--3--2----|--L--------L------------|
--2--2-----------4--4--|-----4-------------------|------------------------|


                                                 PM PM PM PM PM       
  W                   E  E  H        E  E     E  E  E  E  E  E  Q     
-------------------|-----------------------|-------------------------|
-------------------|-----------------------|-------------------------|
--L----------------|-----------------------|-------------------------|
-------------------|-----------------------|-----------4--------L----|
-------------------|--2--2-----------4--4--|--------2-----4--2-------|
-------------------|--2--2-----------4--4--|-----4--------------4----|


  H        Q    Q       W                   E  E  H        E  E   
---------------------|-------------------|-----------------------|
---------------------|-------------------|--5--5-----------7--7--|
---------------------|-------------------|--6--6-----------7--7--|
----------------7----|--L----------------|-----------------------|
----------------7----|--L----------------|-----------------------|
--L--------L----7----|--L----------------|-----------------------|


  PM PM                                                             
  E  E  E  E  E  E  E  E     W                    W                 
--------------------------|--------------------|-------------------|
--------------------------|--------------------|-------------------|
--------------------------|--------------------|-------------------|
--------7--5-----------7--|--9~----------------|--L----------------|
--5--9--------7--5--9-----|--------------------|-------------------|
--------------------------|--------------------|-------------------|


     PM PM       PM PM PM          PM PM                 
  E  E  E  E  E  E  S  S  E     E  E  E  E  E  E  E  E   
-----------------------------|--------------------------|
-----------------------------|--------------------------|
-----------------------------|-----------------9--8--7--|
--7--------7-----------------|--7--------7--------------|
--5--------5-----------------|--5--------5--------------|
-----0--0--------0--0--0--0--|-----0--0-----------------|


     PM PM       PM PM PM                                    
  E  E  E  E  E  E  S  S  E     E  E  E  E   E   E   E   E   
-----------------------------|------------------------------|
-----------------------------|------------------------------|
-----------------------------|------------------------------|
--7--------7-----------------|--9--9--9--7------------------|
--5--------5-----------------|--------------10--10--10--10--|
-----0--0--------0--0--0--0--|------------------------------|


     PM PM       PM PM PM          PM PM                 
  E  E  E  E  E  E  S  S  E     E  E  E  E  E  E  E  E   
-----------------------------|--------------------------|
-----------------------------|--------------------------|
-----------------------------|-----------------9--8--7--|
--7--------7-----------------|--7--------7--------------|
--5--------5-----------------|--5--------5--------------|
-----0--0--------0--0--0--0--|-----0--0-----------------|


     PM PM       PM PM PM                                 
  E  E  E  E  E  E  S  S  E      E  E  E  E  E  E  E  E   
-----------------------------|---------------------------|
-----------------------------|---------------------------|
-----------------------------|---------7-----------7-----|
--7--------7-----------------|------9-----9-----7-----7--|
--5--------5-----------------|--10-----------9-----------|
-----0--0--------0--0--0--0--|---------------------------|


  PM PM        PM  PM  PM  PM                PM PM PM PM  
  E  E  E  E   E   E   E   E     E  E  E  E  E  E  E  E   
------------------------------|--------------------------|
------------------------------|--------------------------|
------------------------------|--7--7--7-----------------|
--------9--7------------------|-----------9--7--7--7--7--|
--7--7--------10--10--10--10--|--------------------------|
------------------------------|--------------------------|


  PM PM  PM                                    PM PM PM PM  
  E  E   E  E   E   E   E   E     E  E  E   E  E  E  E  E   
-------------------------------|---------------------------|
-------------------------------|---------------------------|
-------------------------------|--9--9--9------------------|
--------11--9------------------|-----------11--9--9--9--9--|
--9--9---------12--12--12--12--|---------------------------|
-------------------------------|---------------------------|


  PM PM  PM                                    PM PM PM PM  
  E  E   E  E   E   E   E   E     E  E  E   E  E  E  E  E   
-------------------------------|---------------------------|
-------------------------------|---------------------------|
-------------------------------|--9--9--9------------------|
--------11--9------------------|-----------11--9--9--9--9--|
--9--9---------12--12--12--12--|---------------------------|
-------------------------------|---------------------------|


  PM PM  PM                                    PM PM PM PM  
  E  E   E  E   E   E   E   E     E  E  E   E  E  E  E  E   
-------------------------------|---------------------------|
-------------------------------|---------------------------|
-------------------------------|--9--9--9------------------|
--------11--9------------------|-----------11--9--9--9--9--|
--9--9---------12--12--12--12--|---------------------------|
-------------------------------|---------------------------|


  PM PM  PM                                    PM PM PM PM  
  E  E   E  E   E   E   E   E     E  E  E   E  E  E  E  E   
-------------------------------|---------------------------|
-------------------------------|---------------------------|
-------------------------------|--9--9--9------------------|
--------11--9------------------|-----------11--9--9--9--9--|
--9--9---------12--12--12--12--|---------------------------|
-------------------------------|---------------------------|


  H        H           H        H           H        H         
--------------------|--------------------|--------------------|
--------------------|--------------------|--------------------|
--5--------3--------|--8-----------------|--5--------3--------|
--5--------3--------|--8--------6--------|--5--------3--------|
--3--------1--------|--6--------6--------|--3--------1--------|
--------------------|-----------6--------|--------------------|


  H        H           H        H           H        H         
--------------------|--------------------|--------------------|
--------------------|--------------------|--------------------|
--8-----------------|--5--------3--------|--8-----------------|
--8--------6--------|--5--------3--------|--8--------6--------|
--6--------6--------|--3--------1--------|--6--------6--------|
-----------6--------|--------------------|-----------6--------|


  H        H           H        H           W                 
--------------------|--------------------|-------------------|
--------------------|--------------------|-------------------|
--5--------3--------|--8-----------------|-------------------|
--5--------3--------|--8--------6--------|--2----------------|
--3--------1--------|--6--------6--------|--2----------------|
--------------------|-----------6--------|--2----------------|


  W                   W                   W                 
-------------------|-------------------|-------------------|
-------------------|-------------------|-------------------|
-------------------|-------------------|-------------------|
--L----------------|--L----------------|--L----------------|
--L----------------|--L----------------|--L----------------|
--L----------------|--L----------------|--L----------------|


                                                             \0                 
  E  E  Q    E  E  E  E     Q    E  E  E  E   E  E     E  E  E  E  E  E  E  E   
-------------------------|--------------------------|--------------------------|
-------------------------|--------------------------|--------------------------|
-------------------------|--------------------------|--------------------------|
--2--2-------2--2--2--2--|-------2------------------|--2--2--2--------------L--|
--2--2-------2--2--2--2--|-------2--2--2--2~--L--2--|--2--2--2--------------L--|
--2--2-------2--2--2--2--|-------2-----2---------2--|--2--2--2--------------L--|


        Q    E   E  Q    E    E      E  E  Q    E  E  E  E   
-----|----------------------------|-------------------------|
-----|----------------------------|-------------------------|
-----|----------------------------|-------------------------|
-----|--2-----------2-------------|-------------------------|
-----|--2----5S--7--2----2s--10~--|--L--L--2----5--9--7--5--|
-----|--2----5S--7--2----2--------|--------2----------------|


                        W                             
  Q    E   E  Q    E    E     E  E  Q    E  E  E  E   
---------------------------|-------------------------|
---------------------------|-------------------------|
---------------------------|-------------------------|
--2-----------2------------|-------------------------|
--2----5S--7--2----2s--10--|--L--L--2----0--3--2--1--|
--2----5S--7--2----2-------|--------2----------------|


  Q    E   E  Q    E    E      E  E  Q    E  E  E  E   
----------------------------|-------------------------|
----------------------------|-------------------------|
----------------------------|-------------------------|
--2-----------2-------------|-------------------------|
--2----5S--7--2----2s--10~--|--L--L--2----5--9--7--5--|
--2----5S--7--2----2--------|--------2----------------|


                        W                                                 
  Q    E   E  Q    E    E     E  E  Q    E  E  E  E     W                 
---------------------------|-------------------------|-------------------|
---------------------------|-------------------------|-------------------|
---------------------------|-------------------------|-------------------|
--2-----------2------------|-------------------------|--2----------------|
--2----5S--7--2----2s--10--|--L--L--2----0--3--2--1--|--2----------------|
--2----5S--7--2----2-------|--------2----------------|--2----------------|


  W                   Q    E  E  E  Q    E     Q    E  E  E  Q    E   
-------------------|------------------------|------------------------|
-------------------|------------------------|------------------------|
--9----------------|------------------------|------------------------|
--9----------------|--5-------7-----5-------|--3-------5-----3-------|
--7----------------|--5-------7-----5-------|--3-------5-----3-------|
-------------------|--5----5-----5--5----5--|--3----3-----3--3----3--|


  W                   W                   Q    E  E  E  Q    E   
-------------------|-------------------|------------------------|
-------------------|-------------------|------------------------|
-------------------|--9----------------|--5-------5-----5-------|
--2----------------|--9----------------|--5-------5-----5-------|
--2----------------|--7----------------|--3----3--3--3--3----3--|
--2----------------|-------------------|------------------------|


  Q    E  E  E  Q    E     W                   W                 
------------------------|-------------------|-------------------|
------------------------|-------------------|-------------------|
--2-------2-----4-------|-------------------|--9----------------|
--2-------2-----4-------|--2----------------|--9----------------|
--0----0--0--2--2----2--|--2----------------|--7----------------|
------------------------|--2----------------|-------------------|


  Q    E  E  E  Q    E     Q    E  E  E  E  E  E     W                 
------------------------|-------------------------|-------------------|
------------------------|-------------------------|-------------------|
------------------------|-------------------------|-------------------|
--5-------7-----5-------|--3-------5-----3--------|--2----------------|
--5-------7-----5-------|--3-------5-----3--------|--2----------------|
--5----5-----5--5----5--|--3----3-----3--3--0--1--|--2----------------|


  W                   Q    E  E  E  E  E  E     Q    E  E  E  Q    E   
-------------------|-------------------------|------------------------|
-------------------|-------------------------|------------------------|
--9----------------|--5-------5-----7-----5--|--2-------2-----4-------|
--9----------------|--5-------5-----7-----5--|--2-------2-----4-------|
--7----------------|--3----3-----3-----3-----|--0----0--0--2--2----2--|
-------------------|-------------------------|------------------------|


                                             PM PM    PM PM    PM PM    PM PM  
  W                   W                   E  S  S  E  S  S  E  S  S  E  S  S   
-------------------|-------------------|--------------------------------------|
-------------------|-------------------|--------------------------------------|
-------------------|--9----------------|--------------------------------------|
--2----------------|--9----------------|--------------------------------------|
--2----------------|--7----------------|--5--------5--------5--------5--------|
--2----------------|-------------------|--5--5--5--5--5--5--5--5--5--5--5--5--|


     PM PM    PM PM    PM PM    PM PM                             
  E  S  S  E  S  S  E  S  S  E  S  S     E  S S S S Q    Q    E   
--------------------------------------|--------------------------|
--------------------------------------|--------------------------|
--------------------------------------|--------------------------|
--------------------------------------|--------------------------|
--3--------3--------3--------3--------|--2--L-L-L-L-L---------L--|
--3--3--3--3--3--3--3--3--3--3--3--3--|--2--L-L-L-L-L----L----L--|


  W                   Q    E  E  E  E  E  E  Q    E  E  E  E  E  E   
-------------------|------------------------------------------------|
-------------------|------------------------------------------------|
-------------------|--5-------7-----5--------2-------2-----4--4--4--|
--9----------------|--5-------7-----5--------2-------2-----4--4--4--|
--7----------------|--3----3-----3-----3--5--0----0--0--2--2--2--2--|
-------------------|------------------------------------------------|


                                             PM PM    PM PM    PM PM    PM PM  
  W                   W                   E  S  S  E  S  S  E  S  S  E  S  S   
-------------------|-------------------|--------------------------------------|
-------------------|-------------------|--------------------------------------|
-------------------|-------------------|--------------------------------------|
-------------------|--9----------------|--------------------------------------|
--2----------------|--7----------------|--5--------5--------5--------5--------|
--2----------------|-------------------|--5--5--5--5--5--5--5--5--5--5--5--5--|


     PM PM    PM PM    PM PM    PM PM                         
  E  S  S  E  S  S  E  S  S  E  S  S     Q    E  H        E   
--------------------------------------|----------------------|
--------------------------------------|----------------------|
--------------------------------------|----------------------|
--------------------------------------|----------------------|
--3--------3--------3--------3--------|----------2--------L--|
--3--3--3--3--3--3--3--3--3--3--3--3--|----------2--------L--|


                         PM    PM     PM    PM                       
  W                   E  E  E  E   E  E  E  E     H        H         
-------------------|---------------------------|--------------------|
-------------------|--------5------8-----------|--------------------|
-------------------|--------5------9-----------|-----------4--------|
--9----------------|--5-----5-----10-----5-----|--2--------4--------|
--7----------------|--3--3-----3------3--3--3--|--0--------2--------|
-------------------|---------------------------|--------------------|


  PM PM PM     PM  PM  PM  PM                PM PM PM PM  
  E  E  E  E   E   E   E   E     E  E  E  E  E  E  E  E   
------------------------------|--------------------------|
------------------------------|--------------------------|
------------------------------|--7--7--7-----------------|
--9--9--9--7------------------|-----------9--7--7--7--7--|
--------------10--10--10--10--|--------------------------|
------------------------------|--------------------------|


  PM PM PM     PM  PM  PM  PM                PM PM PM PM  
  E  E  E  E   E   E   E   E     E  E  E  E  E  E  E  E   
------------------------------|--------------------------|
------------------------------|--------------------------|
------------------------------|--7--7--7-----------------|
--9--9--9--7------------------|-----------9--7--7--7--7--|
--------------10--10--10--10--|--------------------------|
------------------------------|--------------------------|


  PM PM  PM                                    PM PM PM PM  
  E  E   E  E   E   E   E   E     E  E  E   E  E  E  E  E   
-------------------------------|---------------------------|
-------------------------------|---------------------------|
-------------------------------|--9--9--9------------------|
--------11--9------------------|-----------11--9--9--9--9--|
--9--9---------12--12--12--12--|---------------------------|
-------------------------------|---------------------------|


  PM PM  PM                                    PM PM PM PM  
  E  E   E  E   E   E   E   E     E  E  E   E  E  E  E  E   
-------------------------------|---------------------------|
-------------------------------|---------------------------|
-------------------------------|--9--9--9------------------|
--------11--9------------------|-----------11--9--9--9--9--|
--9--9---------12--12--12--12--|---------------------------|
-------------------------------|---------------------------|


  PM PM  PM                                    PM PM PM PM  
  E  E   E  E   E   E   E   E     E  E  E   E  E  E  E  E   
-------------------------------|---------------------------|
-------------------------------|---------------------------|
-------------------------------|--9--9--9------------------|
--------11--9------------------|-----------11--9--9--9--9--|
--9--9---------12--12--12--12--|---------------------------|
-------------------------------|---------------------------|


  PM PM  PM                                    PM PM PM PM  
  E  E   E  E   E   E   E   E     E  E  E   E  E  E  E  E   
-------------------------------|---------------------------|
-------------------------------|---------------------------|
-------------------------------|--9--9--9------------------|
--------11--9------------------|-----------11--9--9--9--9--|
--9--9---------12--12--12--12--|---------------------------|
-------------------------------|---------------------------|


  H        H           H        H           H        H         
--------------------|--------------------|--------------------|
--------------------|--------------------|--------------------|
--5--------3--------|--8-----------------|--5--------3--------|
--5--------3--------|--8--------6--------|--5--------3--------|
--3--------1--------|--6--------6--------|--3--------1--------|
--------------------|-----------6--------|--------------------|


  H        H           H        H           H        H         
--------------------|--------------------|--------------------|
--------------------|--------------------|--------------------|
--8-----------------|--5--------3--------|--8-----------------|
--8--------6--------|--5--------3--------|--8--------6--------|
--6--------6--------|--3--------1--------|--6--------6--------|
-----------6--------|--------------------|-----------6--------|


  E  E  H        E  E     E  E  E  E  E  E   Q        W                 
-----------------------|---------------------------|-------------------|
-----------------------|---------------------------|-------------------|
-----------------------|---------------------------|-------------------|
-----------------------|---------------------------|-------------------|
--3--3-----------3--3--|--3--3--3-----3--3s--8~----|--L----------------|
--3--3-----------3--3--|--3--3--3-----3--3---------|-------------------|


~~~~~~~~~~~~~~~~~~~~~~~~~~~~~~~~~~~~~~~~~~~~~~~~~~~~~~~~~~~~~~~~~~~~~~~~~


Guitar 2 (aka Latvala)
                 


     E  E  E  E  E  E  E  E     E  E  E  E  E  E  Q     
D||--------------------------|-------------------------|
A||--------------------------|-------------------------|
F||--------------------------|-------------------------|
C||--2--2--------------2--2--|--------------------5----|
G||--2--2--------------2--2--|--------------2--2--3----|
C||--2--2--------------2--2--|--------------2--2-------|


  E  E  E  E  E  E  E  E     E  E  E  E  E  E  Q       E  E  E  E  E  E  E  E   
--------------------------|-------------------------|--------------------------|
--------------------------|-------------------------|--------------------------|
--------------------------|-------------------------|--------------------------|
--2--2--------------2--2--|--------------------3----|--2--2--------------2--2--|
--2--2--------------2--2--|--------------2--2--3----|--2--2--------------2--2--|
--2--2--------------2--2--|--------------2--2--3----|--2--2--------------2--2--|


                                                                 PM PM       
  E  E  E  E  E  E  Q       E  E  E  E  E  E  E  E     Q    Q    E  E  Q     
-------------------------|--------------------------|-----------------------|
-------------------------|--------------------------|-----------------------|
-------------------------|--------------------------|-----------------------|
--------------------5----|--2--2--------------2--2--|------------------3----|
--------------2--2--3----|--2--2--------------2--2--|------------------3----|
--------------2--2-------|--2--2--------------2--2--|------------0--0--3----|


  Q    E   E  Q    E  E     E  E  E  E  E  E  E  E     Q    E   E  Q    E  E   
-------------------------|--------------------------|-------------------------|
-------------------------|--------------------------|-------------------------|
-------------------------|--------------------------|-------------------------|
--2-------------------5--|--L-----5-----4--7--4-----|--2-------------------5--|
--2----2s--7--2----7-----|--------------5-----5--L--|--2----2s--7--2----7-----|
--2----2---L--2-------L--|--L--0-----0-----------0--|--2----2------2-------L--|


  E  E  E  E  E  E  E  E     E  E  E  E  Q    E  E     E  E  E  E  E  E  E  E   
--------------------------|-------------------------|--------------------------|
--------------------------|-------------------------|--------------------------|
--------------------------|-------------------------|--------------------------|
--L-----5-----4--7--4--5--|--L--5----------------5--|--L-----5-----4--7--4-----|
--------------5-----5--3--|--L--3--2--3--2----------|--------------5-----5--L--|
--L--0-----0--------------|--------------2----0-----|--L--0-----0-----------0--|


  E  E  E  E  E  E  E  E     E  E  E  E  E  E  Q       Q    E   E  Q    E  E   
--------------------------|-------------------------|-------------------------|
--------------------------|-------------------------|-------------------------|
--------------------------|-------------------------|-------------------------|
--2--2--------2--5--2--2--|--------2--5--------3----|--2-------------------5--|
--2--2--------------2--2--|--------------------3----|--2----2s--7--2----7-----|
--2--2--0--0--------2--2--|--0--0--------0--0--1----|--2----2---L--2-------L--|


  E  E  E  E  E  E  E  E     Q    E   E  Q    E  E     E  E  E  E  E  E  E  E   
--------------------------|-------------------------|--------------------------|
--------------------------|-------------------------|--------------------------|
--------------------------|-------------------------|--------------------------|
--L-----5-----4--7--4-----|--2-------------------5--|--L-----5-----4--7--4--5--|
--------------5-----5--L--|--2----2s--7--2----7-----|--------------5-----5--3--|
--L--0-----0-----------0--|--2----2---L--2-------L--|--L--0-----0--------------|


  E  E  E  E  Q    E  E     E  E  E  E  E  E  E  E     E  E  E  E  E  E  E  E   
-------------------------|--------------------------|--------------------------|
-------------------------|--------------------------|--------------------------|
-------------------------|--------------------------|--------------------------|
--L--5----------------5--|--L-----5-----4--7--4-----|--2--2--------------2--2--|
--L--3--2--3--2----------|--------------5-----5--L--|--2--2--------------2--2--|
--------------2----0-----|--L--0-----0--------------|--2--2--------------2--2--|


              PM PM                                    PM       PM          
  E  E  E  E  E  E  Q       E  E  H        E  E     E  E  E  E  E  E  Q     
-------------------------|-----------------------|-------------------------|
-------------------------|-----------------------|-------------------------|
-------------------------|-----------------------|--------------------6----|
--------2--5--------3----|-----------------------|-----------4-------------|
--------------------3----|--2--2-----------4--4--|--------2-----4--2-------|
--0--0--------0--0--3----|--2--2-----------4--4--|-----4-------------------|


  H        Q    E  E     H         Q     E  E     E  E  H        E  E   
----------------------|------------------------|-----------------------|
--L--------L----L--L--|------------------------|-----------------------|
--L--------L----L--L--|--L---------------------|-----------------------|
----------------------|------------------------|-----------------------|
----------------------|------------------------|--2--2-----------4--4--|
----------------------|-----------11s----0-----|--2--2-----------4--4--|


     PM       PM                                  W                 
  E  E  E  E  E  E  Q       W                     W                 
-------------------------|-------------------|---------------------|
-------------------------|-------------------|--<>5----------------|
--------------------4----|--L----------------|---------------------|
-----------4-------------|-------------------|---------------------|
--------2-----3--2-------|-------------------|---------------------|
-----4-------------------|-------------------|---------------------|


                             PM       PM PM                           
  E  E  H        E  E     E  E  E  E  E  E  Q       W                 
-----------------------|-------------------------|-------------------|
-----------------------|-------------------------|-------------------|
-----------------------|--------------------5----|--L----------------|
-----------------------|-----------4-------------|-------------------|
--2--2-----------4--4--|--------2-----3--2-------|-------------------|
--2--2-----------4--4--|-----4-------------------|-------------------|


  W                   E  E  H        E  E     E  E  E  E  E  E   Q      
-------------------|-----------------------|---------------------------|
-------------------|-----------------------|---------------------------|
--L----------------|-----------------------|---------------------------|
-------------------|-----------------------|-----------4---------------|
-------------------|--2--2-----------4--4--|--------2-----4--2---------|
-------------------|--2--2-----------4--4--|-----4--------------(2)----|


   Q     Q     Q     Q        Q     Q     Q      Q      
--------------------------|----------------------------|
--------------------------|----------------------------|
--------------------------|----------------------------|
--------------------------|---------------------(2)----|
--(0)----L----(2)----L----|--(4)----L----(5)-----------|
---L----------------------|----------------------------|


  Q    E   E  Q    E  E     E  E  E  E  E  E  E  E     Q    E   E  Q    E  E   
-------------------------|--------------------------|-------------------------|
-------------------------|--------------------------|-------------------------|
-------------------------|--------------------------|-------------------------|
--2-------------------5--|--L-----5-----4--7--4-----|--2-------------------5--|
--2----2s--7--2----7-----|--------------5-----5--L--|--2----2s--7--2----7-----|
--2----2---L--2-------L--|--L--0-----0-----------0--|--2----2------2-------L--|


  E  E  E  E  E  E  E  E     E  E  E  E  Q    E  E     E  E  E  E  E  E  E  E   
--------------------------|-------------------------|--------------------------|
--------------------------|-------------------------|--------------------------|
--------------------------|-------------------------|--------------------------|
--L-----5-----4--7--4--5--|--L--5----------------5--|--L-----5-----4--7--4-----|
--------------5-----5--3--|--L--3--2--3--2----------|--------------5-----5--L--|
--L--0-----0--------------|--------------2----0-----|--L--0-----0-----------0--|


  E  E  H        E  E     E  E  E  E  E  E  Q       E  E  H        E  E   
-----------------------|-------------------------|-----------------------|
-----------------------|-------------------------|-----------------------|
-----------------------|-------------------------|-----------------------|
-----------------------|--------2--5--------3----|-----------------------|
--2--2-----------2--2--|--------------------3----|--2--2-----------4--4--|
--2--2-----------2--2--|--0--0--------0--0--1----|--2--2-----------4--4--|


     PM PM PM PM PM                                                       
  E  E  E  E  E  E  Q       H        Q    E  E     H         Q     E  E   
-------------------------|----------------------|------------------------|
-------------------------|----------------------|------------------------|
--------------------6----|--L--------L----L--L--|--L---------------------|
-----------4-------------|----------------------|------------------------|
--------2-----4--2-------|----------------------|------------------------|
-----4-------------------|----------------------|-----------11s----0-----|


                             PM PM PM PM PM                           
  E  E  H        E  E     E  E  E  E  E  E  Q       W                 
-----------------------|-------------------------|-------------------|
-----------------------|-------------------------|-------------------|
-----------------------|-------------------------|-------------------|
-----------------------|-----------4-------------|-------------------|
--2--2-----------4--4--|--------2-----3--2--2----|--L----------------|
--2--2-----------4--4--|-----4-------------------|-------------------|


                   SH                                                       
  Q    Q    Q      Q        E  E  H        E  E     E  E  E  E  E  E  Q     
-------------------------|-----------------------|-------------------------|
-------------------------|-----------------------|-------------------------|
-------------------------|-----------------------|-------------------------|
-----------------<>5~----|-----------------------|-----------4--------6----|
-------------------------|--2--2-----------4--4--|--------2-----4--2-------|
-------------------------|--2--2-----------4--4--|-----4-------------------|


  W                   W                   E  E  E  E  E  E  E  E   
-------------------|-------------------|--------------------------|
-------------------|-------------------|--------------------------|
-------------------|-------------------|--------------------------|
--L----------------|--L----------------|-----4--------5--4--------|
-------------------|-------------------|--5-----5--5--------7--5--|
-------------------|-------------------|--------------------------|


  E  E  E  E  E  E  E  E     E  E  E  E  E  E  E  E   
--------------------------|--------------------------|
--------------------------|--------------------------|
--------------------------|-----------------------9--|
-----4--------5--4--------|-----------7--------------|
--5-----5--5--------7--5--|--9--5--9-----9--5--9-----|
--------------------------|--------------------------|


                                PM PM       PM PM PM     
  E  E  E  E  E  E  E  E     E  E  E  E  E  E  S  S  E   
--------------------------|-----------------------------|
--------------------------|-----------------------------|
-----7-----6--------------|-----------------------------|
--------------9--7--------|--7--------7-----------------|
--9-----9-----------9--5--|--5--------5-----------------|
--------------------------|-----0--0--------0--0--0--0--|


     PM PM                        PM PM       PM PM PM     
  E  E  E  E  E   E   E  E     E  E  E  E  E  E  S  S  E   
----------------------------|-----------------------------|
----------------------------|-----------------------------|
----------------------------|-----------------------------|
--7--------7-----11--10--9--|--7--------7-----------------|
--5--------5----------------|--5--------5-----------------|
-----0--0-------------------|-----0--0--------0--0--0--0--|


                                 PM PM       PM PM PM     
  E   E  E  E  E  E  E  E     E  E  E  E  E  E  S  S  E   
---------------------------|-----------------------------|
---------------------------|-----------------------------|
---------------------------|-----------------------------|
---------9--7--------7--6--|--7--------7-----------------|
--7--10--------7--9--------|--5--------5-----------------|
---------------------------|-----0--0--------0--0--0--0--|


     PM PM                        PM PM       PM PM PM     
  E  E  E  E  E   E   E  E     E  E  E  E  E  E  S  S  E   
----------------------------|-----------------------------|
----------------------------|-----------------------------|
----------------------------|-----------------------------|
--7--------7-----12--10--9--|--7--------7-----------------|
--5--------5----------------|--5--------5-----------------|
-----0--0-------------------|-----0--0--------0--0--0--0--|


                                  PM PM PM     PM  PM  PM  PM  
   E   E  E   E  E   E  E   E     E  E  E  E   E   E   E   E   
-------------------------------|------------------------------|
-------------------------------|------------------------------|
----------7-------------7------|------------------------------|
------12-----12-----12-----12--|--9--9--9--7------------------|
--12-------------9-------------|--------------10--10--10--10--|
-------------------------------|------------------------------|


              PM PM PM PM    PM PM PM     PM  PM  PM  PM  
  E  E  E  E  E  E  E  E     E  E  E  E   E   E   E   E   
--------------------------|------------------------------|
--------------------------|------------------------------|
--7--7--7-----------------|------------------------------|
-----------9--7--7--7--7--|--9--9--9--7------------------|
--------------------------|--------------10--10--10--10--|
--------------------------|------------------------------|


              PM PM PM PM    PM PM PM     PM  PM  PM  PM  
  E  E  E  E  E  E  E  E     E  E  E  E   E   E   E   E   
--------------------------|------------------------------|
--------------------------|------------------------------|
--7--7--7-----------------|------------------------------|
-----------9--7--7--7--7--|--9--9--9--7------------------|
--------------------------|--------------10--10--10--10--|
--------------------------|------------------------------|


              PM PM PM PM    PM PM PM     PM  PM  PM  PM  
  E  E  E  E  E  E  E  E     E  E  E  E   E   E   E   E   
--------------------------|------------------------------|
--------------------------|------------------------------|
--7--7--7-----------------|------------------------------|
-----------9--7--7--7--7--|--9--9--9--7------------------|
--------------------------|--------------10--10--10--10--|
--------------------------|------------------------------|


              PM PM PM PM                                          
  E  E  E  E  E  E  E  E     W                   W                 
--------------------------|-------------------|-------------------|
--------------------------|-------------------|-------------------|
--7--7--7-----------------|-------------------|-------------------|
-----------9--7--7--7--7--|--2----------------|--L----------------|
--------------------------|--2----------------|--L----------------|
--------------------------|--2----------------|--L----------------|


  W                   W                   E  E  E  E  E  E  E  E         
-------------------|-------------------|--------------------------|-----|
-------------------|-------------------|--------------------------|-----|
-------------------|-------------------|--------------------------|-----|
--L----------------|--L----------------|--2--------2--------------|-----|
--L----------------|--L----------------|--2--------2--------------|-----|
--L----------------|--L----------------|--2--------2--------------|-----|


  E  E  E  E  E  E  E  E           Q    E   E  Q    E   E    
--------------------------|-----|---------------------------|
--------------------------|-----|---------------------------|
--------------------------|-----|---------------------------|
--2--------2--------------|-----|--2-----------2------------|
--2--------2--------------|-----|--2----5S--7--2----2s--7~--|
--2--------2--------------|-----|--2----5S--7--2----2-------|


                                                 W                             
  E  E  Q    E  E  E  E     Q    E   E  Q    E   E     E  E  Q    E  E  E  E   
-------------------------|--------------------------|-------------------------|
-------------------------|--------------------------|-------------------------|
-------------------------|--------------------------|-------------------------|
-------------7--7--7--7--|--2-----------2-----------|-------------2--5--4--3--|
--L--L--2----5--5--5--5--|--2----5S--7--2----2s--7--|--L--L--2----------------|
--------2----------------|--2----5S--7--2----2------|--------2----------------|


  Q    E   E  Q    E   E      E  E  Q    E  E  E  E   
---------------------------|-------------------------|
---------------------------|-------------------------|
---------------------------|-------------------------|
--2-----------2------------|-------------7--7--7--7--|
--2----5S--7--2----2s--7~--|--L--L--2----5--5--5--5--|
--2----5S--7--2----2-------|--------2----------------|


                       W                                                       
  Q    E   E  Q    E   E     E  E  Q    E  E  E  E     Q    E   E  Q    E  E   
--------------------------|-------------------------|-------------------------|
--------------------------|-------------------------|-------------------------|
--------------------------|-------------------------|-------------------------|
--2-----------2-----------|-------------2--5--4--3--|--2-------------------5--|
--2----5S--7--2----2s--7--|--L--L--2----------------|--2----2s--7--2----7-----|
--2----5S--7--2----2------|--------2----2--5--4--3--|--2----2---L--2-------L--|


  E  E  E  E  E  E  E  E     Q    E   E  Q    E  E     E  E  E  E  E  E  E  E   
--------------------------|-------------------------|--------------------------|
--------------------------|-------------------------|--------------------------|
--------------------------|-------------------------|--------------------------|
--L-----5-----4--7--4-----|--2-------------------5--|--L-----5-----4--7--4--5--|
--------------5-----5--L--|--2----2s--7--2----7-----|--------------5-----5--3--|
--L--0-----0-----------0--|--2----2---L--2-------L--|--L--0-----0--------------|


  E  E  E  E  Q    E  E     E  E  E  E  E  E  E  E     E  E  E  E  E  E  E  E   
-------------------------|--------------------------|--------------------------|
-------------------------|--------------------------|--------------------------|
-------------------------|--------------------------|--------------------------|
--L--5----------------5--|--L-----5-----4--7--4-----|--2--2--------------2--2--|
--L--3--2--3--2----------|--------------5-----5--L--|--2--2--------------2--2--|
--------------2----0-----|--L--0-----0-----------0--|--2--2--------------2--2--|


                                                       PM PM PM PM PM       
  E  E  E  E  E  E  Q       E  E  H        E  E     E  E  E  E  E  E  Q     
-------------------------|-----------------------|-------------------------|
-------------------------|-----------------------|-------------------------|
-------------------------|-----------------------|--------------------6----|
--------2--5--------3----|-----------------------|-----------4-------------|
--------------------3----|--2--2-----------4--4--|--------2-----4--2-------|
--x--x--------0--0--3----|--2--2-----------4--4--|-----4-------------------|


  H        Q    E  E     H         Q     E  E     E  E  H        E  E   
----------------------|------------------------|-----------------------|
----------------------|------------------------|-----------------------|
--L--------L----L--L--|--L---------------------|-----------------------|
----------------------|------------------------|-----------------------|
----------------------|------------------------|--2--2-----------4--4--|
----------------------|-----------11s----0-----|--2--2-----------4--4--|


     PM PM PM PM PM                               NH                 
  E  E  E  E  E  E  Q       W                     W                  
-------------------------|-------------------|----------------------|
-------------------------|-------------------|--<>5~----------------|
--------------------4----|--L----------------|----------------------|
-----------4-------------|-------------------|----------------------|
--------2-----4--3-------|-------------------|----------------------|
-----4-------------------|-------------------|----------------------|


                             PM PM PM PM PM                             
  E  E  H        E  E     E  E  E  E  E  E  Q       H        Q    Q     
-----------------------|-------------------------|---------------------|
-----------------------|-------------------------|---------------------|
-----------------------|-------------------------|---------------------|
-----------------------|-----------4--------6----|--L--------L----7----|
--2--2-----------4--4--|--------2-----4--2-------|----------------7----|
--2--2-----------4--4--|-----4-------------------|----------------7----|


  W                   E  E  E  E  E  E  E  E     E  E  E  E  E  E  E  E   
-------------------|--------------------------|--------------------------|
-------------------|--------------------------|--------------------------|
-------------------|--------------------------|--------------------------|
--L----------------|-----4--------5--4--------|-----4--------5--4--------|
--L----------------|--5-----5--5--------7--5--|--5-----5--5--------7--5--|
--L----------------|--------------------------|--------------------------|


  E  E  E  E  E  E  E  E     E  E  E  E  E  E  E  E   
--------------------------|--------------------------|
--------------------------|--------------------------|
-----------------------9--|-----7-----6--------------|
-----------7--------------|--------------9--7--------|
--9--5--9-----9--5--9-----|--9-----9-----------9--5--|
--------------------------|--------------------------|


     PM PM       PM PM PM          PM PM                   
  E  E  E  E  E  E  S  S  E     E  E  E  E  E   E   E  E   
-----------------------------|----------------------------|
-----------------------------|----------------------------|
-----------------------------|----------------------------|
--7--------7-----------------|--7--------7-----11--10--9--|
--5--------5-----------------|--5--------5----------------|
-----0--0--------0--0--0--0--|-----0--0-------------------|


     PM PM       PM PM PM                                 
  E  E  E  E  E  E  S  S  E     E   E  E  E  E  E  E  E   
-----------------------------|---------------------------|
-----------------------------|---------------------------|
-----------------------------|---------------------------|
--7--------7-----------------|---------9--7--------7--6--|
--5--------5-----------------|--7--10--------7--9--------|
-----0--0--------0--0--0--0--|---------------------------|


     PM PM       PM PM PM          PM PM                   
  E  E  E  E  E  E  S  S  E     E  E  E  E  E   E   E  E   
-----------------------------|----------------------------|
-----------------------------|----------------------------|
-----------------------------|----------------------------|
--7--------7-----------------|--7--------7-----11--10--9--|
--5--------5-----------------|--5--------5----------------|
-----0--0--------0--0--0--0--|-----0--0-------------------|


     PM PM       PM PM PM                              PM PM    PM PM PM PM PM  
  E  E  E  E  E  E  S  S  E      H         H           E  E  E  E  E  E  E  E   
-----------------------------|----------------------|--------------------------|
-----------------------------|----------------------|--------------------------|
-----------------------------|--12--------11--------|--------7-----------------|
--7--------7-----------------|--12--------12--------|--9--9-----9--9--9--9--9--|
--5--------5-----------------|----------------------|--------------------------|
-----0--0--------0--0--0--0--|----------------------|--------------------------|


  PM PM PM    PM PM PM PM    PM PM        PM  PM  PM  PM  
  E  E  E  E  E  E  E  E     E  E  E  E   E   E   E   E   
--------------------------|------------------------------|
--------------------------|------------------------------|
--7--7--7--6--------------|--------9--7------------------|
--------------4--4--4--4--|--9--9--------11--11--11--11--|
--------------------------|------------------------------|
--------------------------|------------------------------|


                PM  PM  PM  PM    PM PM        PM  PM  PM  PM  
  E  E  E   E   E   E   E   E     E  E  E  E   E   E   E   E   
-------------------------------|------------------------------|
-------------------------------|------------------------------|
--9--9--9----------------------|--------9--7------------------|
-----------11--11--11--11--11--|--9--9--------11--11--11--11--|
-------------------------------|------------------------------|
-------------------------------|------------------------------|


                PM  PM  PM  PM    PM PM        PM  PM  PM  PM  
  E  E  E   E   E   E   E   E     E  E  E  E   E   E   E   E   
-------------------------------|------------------------------|
-------------------------------|------------------------------|
--9--9--9----------------------|--------9--7------------------|
-----------11--11--11--11--11--|--9--9--------11--11--11--11--|
-------------------------------|------------------------------|
-------------------------------|------------------------------|


                PM  PM  PM  PM    PM PM        PM  PM  PM  PM  
  E  E  E   E   E   E   E   E     E  E  E  E   E   E   E   E   
-------------------------------|------------------------------|
-------------------------------|------------------------------|
--9--9--9----------------------|--------9--7------------------|
-----------11--11--11--11--11--|--9--9--------11--11--11--11--|
-------------------------------|------------------------------|
-------------------------------|------------------------------|


                PM  PM  PM  PM                                
  E  E  E   E   E   E   E   E      E   E   E  E  E  E  E  E   
-------------------------------|-----------------------------|
-------------------------------|-----------------------------|
--9--9--9----------------------|--------------8--------------|
-----------11--11--11--11--11--|--10--10--10-----8--8--8--8--|
-------------------------------|-----------------------------|
-------------------------------|-----------------------------|


  E  E   E  E  E  E  E  E      E   E   E  E  E  E  E  E   
---------------------------|-----------------------------|
---------------------------|-----------------------------|
--8--8---------------------|--------------8--------------|
--------10--8--6--6--6--6--|--10--10--10-----8--8--8--8--|
---------------------------|-----------------------------|
---------------------------|-----------------------------|


  E  E   E  E  E  E  E  E      E   E   E  E  E  E  E  E   
---------------------------|-----------------------------|
---------------------------|-----------------------------|
--8--8---------------------|--------------8--------------|
--------10--8--6--6--6--6--|--10--10--10-----8--8--8--8--|
---------------------------|-----------------------------|
---------------------------|-----------------------------|


  E  E   E  E  E  E  E  E      E   E   E  E  E  E  E  E   
---------------------------|-----------------------------|
---------------------------|-----------------------------|
--8--8---------------------|--------------8--------------|
--------10--8--6--6--6--6--|--10--10--10-----8--8--8--8--|
---------------------------|-----------------------------|
---------------------------|-----------------------------|


  E  E   E  E  E  E  E  E     W                   W                 
---------------------------|-------------------|-------------------|
---------------------------|-------------------|-------------------|
--8--8---------------------|-------------------|-------------------|
--------10--8--6--6--6--6--|--2----------------|--L----------------|
---------------------------|--2----------------|--L----------------|
---------------------------|--2----------------|--L----------------|


  W                   W                   E  E  Q    E  E  E  E   
-------------------|-------------------|-------------------------|
-------------------|-------------------|-------------------------|
-------------------|-------------------|-------------------------|
--L----------------|--L----------------|--2--2-------2--2--2--2--|
--L----------------|--L----------------|--2--2-------2--2--2--2--|
--L----------------|--L----------------|--2--2-------2--2--2--2--|


                                   \0                       
  Q    E  E  E  E   E  E     E  E  E  E  E  E  E  E         
--------------------------|--------------------------|-----|
--------------------------|--------------------------|-----|
--------------------------|--------------------------|-----|
-------2---------------2--|--2--2--2--------------L--|-----|
-------2--2--2--2~--L--2--|--2--2--2--------------L--|-----|
-------2-----2---------2--|--2--2--2--------------L--|-----|


  Q    E   E  Q    E   E      E  E  Q    E  E  E  E   
---------------------------|-------------------------|
---------------------------|-------------------------|
---------------------------|-------------------------|
--2-----------2------------|-------------7--7--7--7--|
--2----5S--7--2----2s--7~--|--L--L--2----5--5--5--5--|
--2----5S--7--2------------|--------2----------------|


                       W                             
  Q    E   E  Q    E   E     E  E  Q    E  E  E  E   
--------------------------|-------------------------|
--------------------------|-------------------------|
--------------------------|-------------------------|
--2-----------2-----------|-------------2--5--4--3--|
--2----5S--7--2----2s--7--|--L--L--2----------------|
--2----5S--7--2-----------|--------2----------------|


  Q    E   E  Q    E   E      E  E  Q    E  E  E  E   
---------------------------|-------------------------|
---------------------------|-------------------------|
---------------------------|-------------------------|
--2-----------2------------|-------------7--7--7--7--|
--2----5S--7--2----2s--7~--|--L--L--2----5--5--5--5--|
--2----5S--7--2------------|--------2----------------|


                       W                                                 
  Q    E   E  Q    E   E     E  E  Q    E  E  E  E     W                 
--------------------------|-------------------------|-------------------|
--------------------------|-------------------------|-------------------|
--------------------------|-------------------------|-------------------|
--2-----------2-----------|-------------------------|--2----------------|
--2----5S--7--2----2s--7--|--L--L--2----------------|--2----------------|
--2----5S--7--2-----------|--------2----0--3--2--1--|--2----------------|


  W                   Q    E  E  E  Q    E     Q    E  E  E  Q    E   
-------------------|------------------------|------------------------|
-------------------|------------------------|------------------------|
--9----------------|------------------------|------------------------|
--9----------------|--5-------7-----5-------|--3-------5-----3-------|
--7----------------|--5-------7-----5-------|--3-------5-----3-------|
-------------------|--5----5-----5--5----5--|--3----3-----3--3----3--|


  W                   W                   Q    E  E  E  E  E  E   
-------------------|-------------------|-------------------------|
-------------------|-------------------|-------------------------|
-------------------|--9----------------|--5-------7--------------|
--2----------------|--9----------------|--5-------7-----5--3-----|
--2----------------|--7----------------|--3----3-----3--------5--|
--2----------------|-------------------|-------------------------|


  Q    E  E  E  E  E  E     W                   W                 
-------------------------|-------------------|-------------------|
-------------------------|-------------------|-------------------|
--2-------2--------------|-------------------|--9----------------|
--2-------2-----4--2-----|--2----------------|--9----------------|
--0----0--0--2--------2--|--2----------------|--7----------------|
-------------------------|--0----------------|-------------------|


  Q    E  E  E  E  E  E     Q    E  E  E  E  E  E     W                 
-------------------------|-------------------------|-------------------|
-------------------------|-------------------------|-------------------|
-------------------------|-------------------------|-------------------|
--5-------7-----5--5--5--|--3-------5-----3--3--3--|--2----------------|
--5-------7-----5--5--5--|--3-------5-----3--3--3--|--2----------------|
--5----5-----5--5--5--5--|--3----3-----3--3--3--3--|--2----------------|


  W                   Q    E  E  E  E  E  E     Q    E  E  E  E  E  E   
-------------------|-------------------------|-------------------------|
-------------------|-------------------------|-------------------------|
--9----------------|--5-------7--------------|--2-------2--------------|
--9----------------|--5-------7-----5--3-----|--2-------2-----4--2-----|
--7----------------|--3----3-----3--------5--|--0----0--0--2--------2--|
-------------------|-------------------------|-------------------------|


                                             PM PM    PM PM    PM PM    PM PM  
  W                   W                   E  S  S  E  S  S  E  S  S  E  S  S   
-------------------|-------------------|--------------------------------------|
-------------------|-------------------|--------------------------------------|
-------------------|--9----------------|--------------------------------------|
--2----------------|--9----------------|--------------------------------------|
--2----------------|--7----------------|--5--------5--------5--------5--------|
--2----------------|-------------------|--5--5--5--5--5--5--5--5--5--5--5--5--|


     PM PM    PM PM    PM PM    PM PM                             
  E  S  S  E  S  S  E  S  S  E  S  S     E  S S S S Q    Q    E   
--------------------------------------|--------------------------|
--------------------------------------|--------------------------|
--------------------------------------|--------------------------|
--------------------------------------|--------------------------|
--3--------3--------3--------3--------|--2--L-L-L-L-L---------L--|
--3--3--3--3--3--3--3--3--3--3--3--3--|--2--L-L-L-L-L----L----L--|


   W                    Q    E  E  E  E  E  E  Q    E  E  E  E  E  E   
---------------------|------------------------------------------------|
---------------------|------------------------------------------------|
---------------------|--5-------7--------------2-------2--------------|
---------------------|--5-------7-----5--3-----2-------2-----4--2-----|
--/7~----------------|--3----3-----3--------5--0----0--0--2--------2--|
---------------------|------------------------------------------------|


                                             PM PM    PM PM    PM PM    PM PM  
  W                   W                   E  S  S  E  S  S  E  S  S  E  S  S   
-------------------|-------------------|--------------------------------------|
-------------------|-------------------|--------------------------------------|
-------------------|-------------------|--------------------------------------|
-------------------|--9----------------|--------------------------------------|
--2----------------|--7----------------|--5--------5--------5--------5--------|
--0----------------|-------------------|--5--5--5--5--5--5--5--5--5--5--5--5--|


     PM PM    PM PM    PM PM    PM PM                         
  E  S  S  E  S  S  E  S  S  E  S  S     Q    E  H        E   
--------------------------------------|----------------------|
--------------------------------------|----------------------|
--------------------------------------|----------------------|
--------------------------------------|----------------------|
--3--------3--------3--------3--------|----------2--------L--|
--3--3--3--3--3--3--3--3--3--3--3--3--|----------2--------L--|


  W                   Q    E  E  E  E  E  E     H        H         
-------------------|-------------------------|--------------------|
-------------------|-------------------------|--------------------|
-------------------|--5-------5-----7-----5--|-----------4--------|
--9----------------|--5-------5-----7-----5--|--2--------4--------|
--7----------------|--3----3-----3-----3-----|--0--------2--------|
-------------------|-------------------------|--------------------|


  PM PM PM     PM  PM  PM  PM                PM PM PM PM  
  E  E  E  E   E   E   E   E     E  E  E  E  E  E  E  E   
------------------------------|--------------------------|
------------------------------|--------------------------|
------------------------------|--7--7--7-----------------|
--9--9--9--7------------------|-----------9--7--7--7--7--|
--------------10--10--10--10--|--------------------------|
------------------------------|--------------------------|


  PM PM PM     PM  PM  PM  PM                PM PM PM PM  
  E  E  E  E   E   E   E   E     E  E  E  E  E  E  E  E   
------------------------------|--------------------------|
------------------------------|--------------------------|
------------------------------|--7--7--7-----------------|
--9--9--9--7------------------|-----------9--7--7--7--7--|
--------------10--10--10--10--|--------------------------|
------------------------------|--------------------------|


  PM PM        PM  PM  PM  PM                  PM  PM  PM  PM  
  E  E  E  E   E   E   E   E     E  E  E   E   E   E   E   E   
------------------------------|-------------------------------|
------------------------------|-------------------------------|
--------9--7------------------|--9--9--9----------------------|
--9--9--------11--11--11--11--|-----------11--11--11--11--11--|
------------------------------|-------------------------------|
------------------------------|-------------------------------|


  PM PM        PM  PM  PM  PM                  PM  PM  PM  PM  
  E  E  E  E   E   E   E   E     E  E  E   E   E   E   E   E   
------------------------------|-------------------------------|
------------------------------|-------------------------------|
--------9--7------------------|--9--9--9----------------------|
--9--9--------11--11--11--11--|-----------11--11--11--11--11--|
------------------------------|-------------------------------|
------------------------------|-------------------------------|


  PM PM        PM  PM  PM  PM                  PM  PM  PM  PM  
  E  E  E  E   E   E   E   E     E  E  E   E   E   E   E   E   
------------------------------|-------------------------------|
------------------------------|-------------------------------|
--------9--7------------------|--9--9--9----------------------|
--9--9--------11--11--11--11--|-----------11--11--11--11--11--|
------------------------------|-------------------------------|
------------------------------|-------------------------------|


  PM PM        PM  PM  PM  PM                  PM  PM  PM  PM  
  E  E  E  E   E   E   E   E     E  E  E   E   E   E   E   E   
------------------------------|-------------------------------|
------------------------------|-------------------------------|
--------9--7------------------|--9--9--9----------------------|
--9--9--------11--11--11--11--|-----------11--11--11--11--11--|
------------------------------|-------------------------------|
------------------------------|-------------------------------|


   E   E   E  E  E  E  E  E     E  E   E  E  E  E  E  E   
-----------------------------|---------------------------|
-----------------------------|---------------------------|
--------------8--------------|--8--8---------------------|
--10--10--10-----8--8--8--8--|--------10--8--6--6--6--6--|
-----------------------------|---------------------------|
-----------------------------|---------------------------|


   E   E   E  E  E  E  E  E     E  E   E  E  E  E  E  E   
-----------------------------|---------------------------|
-----------------------------|---------------------------|
--------------8--------------|--8--8---------------------|
--10--10--10-----8--8--8--8--|--------10--8--6--6--6--6--|
-----------------------------|---------------------------|
-----------------------------|---------------------------|


   E   E   E  E  E  E  E  E     E  E   E  E  E  E  E  E   
-----------------------------|---------------------------|
-----------------------------|---------------------------|
--------------8--------------|--8--8---------------------|
--10--10--10-----8--8--8--8--|--------10--8--6--6--6--6--|
-----------------------------|---------------------------|
-----------------------------|---------------------------|


  E  E  H        E  E     E  E  E  E  E  E   Q        W                 
-----------------------|---------------------------|-------------------|
-----------------------|---------------------------|-------------------|
-----------------------|---------------------------|-------------------|
-----------------------|---------------------------|-------------------|
--3--3-----------3--3--|--3--3--3-----3--3s--8~----|--L----------------|
--3--3-----------3--3--|--3--3--3-----3--3---------|-------------------|




Duration Legend
---------------
W - whole
H - half
Q - quarter
E - 8th
S - 16th
T - 32nd
X - 64th
. - note dotted
|-n-|  - n-tuplets


Tablature Legend
----------------
L - tied note
x - dead note
g - grace note
(n) - ghost note
> - accentuded note
NH - natural harmonic
AH - artificial harmonic
TH - tapped harmonic
SH - semi harmonic
PH - pitch harmonic
h - hammer on
p - pull off
b - bend
br - bendRelease
pb - preBend
pbr - preBendRelease
brb - bendReleaseBend
\n/ - tremolo bar dip
\n - tremolo bar dive
-/n - tremolo bar Release up
/n\ - tremolo bar inverted dip
/n - tremolo bar return
-\n - tremolo bar Release down
S - shift slide
s - legato slide
/ -  slide into from below or out of upwards
\ -  slide into from above or out of downwards
~ - vibrato
W - wide vibrato
tr - trill
TP - tremolo picking
T - tapping
S - slap
P - pop
< - fade in
^ - brush up
v - brush down

            
            
Suggest correction
Creating personal tab
Creating personal tab
You can edit any tab online and save it as your Personal.

You can edit, replace or remove any tab part or add personal notes – all changes will be seen only by you.

Personal tabs can be accessed anytime from any device, even offline.
Learn more »
comments
print report bad tab
2 comments total.
0 reply
Lefty3741 10 Jan 25, 2008 04:38 AM

great tab but a bit long i'll give you 5 stars

0 reply
JungIe 257 Sep 21, 2008 05:18 PM

great tab though it took quite the amount of pages to print

guest
Wanna post a correction for this tab? Suggest correction