Oops, an error
Loading. Please wait.

Oops I Did It Again Bass Tab

version 1
version 1

Whole song

Interactive

5,607 views 3 this week
2 commentsread comments
1 2 3 4 5
accurate
x 3
add to favorites
launch autoscroll
font size
0
reset
guitar tuner
Tab Pro tools
  • play this tab
  • loop segment
  • change instrument
  • show fretboard
  • metronome
×
Best way to learn
"Oops I Did It Again"
Autoscroll
slow
fast
+/-
esc
set tempo
stop
Contributor
-------------------------------------------------------------------------------
		 Oops I did it again (Britney spears) - COB
-------------------------------------------------------------------------------
Tabbed By: Valerie L
e-mail: iloled@yahoo.com
Tuning: Drop C

I'm playing this song at a talent show aha. This song is supposed to be played on a five 
bass, but I only have a four string so this is four string version.

P = Pop

Intro
F|-------|    |---------7----|
C|-------|    |--------------|
G|-------|    |-5--5-55------|
C|-0--0--| x2 |--------------| x2
                        P

Verse "I think I did it again.."
F|------------3-------------2----------|----------------3--------2----------|
C|-------5-----------------------------|------------3-----------------------|
G|-5-5-4----1----1-11-1-1-0---0-0-000--|-5-54-45-54---1---1-111-0--0-000--0-|
C|-------------------------------------|------------------------------------|
              P             P                           P         P

Pre-Chorus
F|------------------------------------|
C|------------------------------------|
G|------------------------------------|
C|-555555-77777777-8888888-1010101010-|

Chorus "Oops I did it again..."
F|-----------------------------------------|-----------------------------------|
C|-----------------------------------------|-----------------------------------|
G|-5555-3333-5555-3333------3333------0000-|5555-3333-5555-3333---------00-00-5|
C|---------------------3333------3333------|--------------------33333333-------|

Verse 2 "You see my problem is this.."
F|------------------------------------------3----------2---------|
C|---------------------------------------------------------------|
G|-11111111-00000000-5555-3333-5555-33333-1---111111-0---222222--|
C|---------------------------------------------------------------|
                                            P          P

Pre-Chorus x1
Chorus x1

Bridge/rest finnish talking
F|-------------|
C|-------------|
G|-5--5--5-5-3-|
C|-------------|

guitar solo/chorus
F|-------------------------------------------------------------------|
C|-------------------------------------------------------------------|
G|5555-3333------3333------0000-5555-0000-5555-3333----------00000000|
C|----------3333------3333--------------------------33333333---------| 

F|----------------------------------------------------------------------------|
C|----------------------------------------------------------------------------|
G|5555-0000-5555-3333-----3333------0000-5555-0000-5555-3333----------00000000|
C|--------------------3333------3333--------------------------33333333--------|

F|---------------------------------------------------------------------|
C|---------------------------------------------------------------------|
G|5555-0000-5555-3333-----3333------0000-5555-0000-5555-3333----------0|
C|--------------------3333------3333--------------------------3333333--|
 
comments
We did not receive enough feedback on this tab! Please rate:
print report bad tab
1 2 3 4 5
2 comments total.
0 reply
A7X43 wrote on July 2 2008, 04:45 pm

Is this picked or fingered?

0 reply
wakeke wrote on March 7 2009, 11:49 pm

It is definitely fingered because there are slap and pops.

I want to post or [tab]
guest
You may want to rate the tab now too:
select rating
Please do not post tabs as comments. Select "correction" instead!